Break Free, Hillsong United (bajo)

Autor: Anónimo | 29826 visualizaciones



modificacion de la transcripcion de:
Eric Pelagio eric_pelagio@ yahoo.com

ESTA ROLA ESTA SUPER PADRE ASI QUE AHI LES VA...

INTRO...EMPIEZA LA GUITARRA SOLA Y DESPUES
CUANDO EMPIEZAN A CANTAR EL BAJO ENTRA HASTA LA SEGUNDA VUELTA:
I ENTRA ASI...

"who would have thought that God.."

E-s22----------222--------------------------------
A------------------------------555-0-55-555-------
D-------4--2-----------44--22----------------55-44-
G------------------------------------------------

"so wont you break wont you break free.."

E--22------22----22--------------------
A-----22-44----22--44----55-55-55-55--------
D--------------------------------77-5--
G--------------------------------------

E--22------22----22--------------------
A-----22-44----22-44----55-55-555-------
D--------------------------------------
G--------------------------------------


CORO:

"there's no escaping the truth.."

E--55555555---------22222222-----------
A-----------55555555---------55-55-55--   A--3-5---5------
D--------------------------------------   D------3---5-----
G-------------------------------------- X2


VUELVE A LO DEL INICIO....I
DESPUES DE REPETIR EL CORO VA LA MUSICA QUE VA ASI..

MUSICA:..

E-------------------------------------------
A--7777777--9999999--55555555---------------
D-------------------------------------------
G------------------------------------------- X4

DESÙES DE ESTO SE QUEDA SOLO EL BAJO HACIENDO LO SIGUIENTE:

E--222-----222---------------------------
A------4-22-------44-22---222-02-22-22---55-44-
D------------------------------------------
G------------------------------------------

E--222-----222------------------------------
A------4-22-------44-2---222-02-22-22--------
D-------------------------------------77-66---

E--222-------222----------------------------
A-------4-22------44-2---222-02-22--2--------
D-------------------------------------------
D------------------------------------22s4---

Y EMPIEZAN A CANTAR:

"so wont you break wont you break free.."

E--22------22------22---------------------
A-----2-4-----2-4------22-02-22-222---55-4-
D----------------------------------------
G-----------------------------------------X3

E--22------22-----22---------------------
A-----2-4-----2-4-----22-22-22-22---5555-
D----------------------------------------
G----------------------------------------

Y VA CORO DESPUES DE ESTO.....

Y TERMINA ASII.....


E--2222-----2222---------------------------
A------4-2-------44-2----------------------
D------------------------------------------
G------------------------------------------


CREO QUE ES TODO, Y PUES IGUAL QUE EN MIS OTRAS TRANSCRIPCONES
LES ACONSEJO QUE ESCUCHEN LA CANCION OK...
Y QUE DIOS LOS BENDIGA...BIIE..





Calificar esta versión:
Aviso: Este fichero es trabajo propio de su transcriptor y representa su interpretación personal de la canción. El material contenido en esta página es para exclusivo uso privado, por lo que se prohibe su reproducción o retransmisión, así como su uso para fines comerciales.
Más versiones de Break Free, Hillsong United
Break Free
acordes
Break Free
tablatura
Break Free
bajo
Descubre más canciones de Hillsong United