All For Love, Hillsong United (tablatura)

Autor: Anónimo | 30159 visualizaciones



Intro:
ElGuitar 1                                          AcGuitar
e|---------0---0--------------------|
B|-3---3---------------3-------3----|               G   A/C# D
G|---2---2---2---2---2---2---2---2--| 2x            G/B A/C# D
D|-0---------------0-------0--------|
A|----------------------------------|
E|----------------------------------|

Verse 1:
ElGuitar 1                                           AcGuitar
e|---------0---0--------------------|
B|-3---3---------------3-------3----|
G|---2---2---2---2---2---2---2---2--| 2x              G-A-D
D|-0---------------0-------0--------|
A|----------------------------------|
E|----------------------------------|
ElGuitar 1                                           AcGuitar
e|---------0---0--------------------|
B|-3---3---------------3-------3----|
G|---2---2---2---2---2---2---2---2--|                 G-A-Bm
D|-0---------------4-------0--------|
A|----------------------------------|
E|----------------------------------|
ElGuitar 1                                           AcGuitar
e|---------0---0--------------------|
B|-3---3---------------3-------3----|
G|---2---2---2---2---2---2---2---2--|                 G-A-D
D|-0---------------0-------0--------|
A|----------------------------------|
E|----------------------------------|

PreChorus:
ElGuitar 1                                           AcGuitar
e|-------------------------3-2-----------0---|
B|-------2-------3-------------3-------3-----|
G|-----2-------2---2-----0-----------2-------|       A-Bm-G-D
D|---2-----------------------------0---------|
A|-0---------2-------------------------------|
E|---------------------3---------------------|
ElGuitar 2
e|-9~~~-10~~~-----------|
B|--------12~~~-10~~~---|
G|----------------------|
D|----------------------|
A|----------------------|
E|----------------------|

ElGuitar 1                                               AcGuitar
e|---------------------3-3-2-3-2-0-----3-3-2-3-2-------|
B|-------2-------3-----------------3-5-----------5-7---|
G|-----2-------2---2-----------------------------------|  A-Bm-G
D|---2-------------------------------------------------|
A|-0---------2-----------------------------------------|
E|-----------------------------------------------------|
ElGuitar 2
e|-9~~~-10~~~-----------|
B|------------7h9-7h9---|
G|----------------------|
D|----------------------|
A|----------------------|
E|----------------------|

Chorus:
ElGuitar 1                                       AcGuitar
e|------9-------12---------9---------10---|
B|---10-------9---------10--------10------|
G|-9--------9--------11--------11---------|      A-E-F#m-D (2x)
D|----------------------------------------|
A|----------------------------------------|
E|----------------------------------------|
ElGuitar 1
e|-----12--12----9-------10----10----10----10----10----10---10----|
B|--10---9----10------10----10----10----10----10----10----10--10--|
G|9----9---11------11---------------------------------------------|
D|----------------------------------------------------------------|
A|----------------------------------------------------------------|
E|----------------------------------------------------------------|

Verse 2:
ElGuitar 1                                    AcGuitar
e|----------------------------------|
B|-----2------2------3--------------|
G|---0------2------2---2------------| 2x       G-A-D
D|---------------0------------------|
A|--------0-------------------------|
E|-3--------------------------------|

ElGuitar 1                                    AcGuitar
e|----------------------------------|
B|-----2------2------3--------------|
G|---0------2------2---2------------|          G-A-Bm
D|----------------------------------|
A|--------0------2------------------|
E|-3--------------------------------|

ElGuitar 1                                    AcGuitar
e|----------------------------------|
B|-----2------2------3--------------|
G|---0------2------2---2------------|          G-A-D
D|---------------0------------------|
A|--------0-------------------------|
E|-3--------------------------------|

PreChorus:
ElGuitar 1                                           AcGuitar
e|-------------------------3-2-----------0---|
B|-------2-------3-------------3-------3-----|
G|-----2-------2---2-----0-----------2-------|       A-Bm-G-D
D|---2-----------------------------0---------|
A|-0---------2-------------------------------|
E|---------------------3---------------------|
ElGuitar 2
e|-9~~~-10~~~-----------|
B|--------12~~~-10~~~---|
G|----------------------|
D|----------------------|
A|----------------------|
E|----------------------|

ElGuitar 1                                               AcGuitar
e|---------------------3-3-2-3-2-0-----3-3-2-3-2-------|
B|-------2-------3-----------------3-5-----------5-7---|
G|-----2-------2---2-----------------------------------|  A-Bm-G
D|---2-------------------------------------------------|
A|-0---------2-----------------------------------------|
E|-----------------------------------------------------|
ElGuitar 2
e|-9~~~-10~~~-----------|
B|------------7h9-7h9---|
G|----------------------|
D|----------------------|
A|----------------------|
E|----------------------|

Chorus 2:
ElGuitar 1                                       AcGuitar
e|--9-------12---------9--------10--------|
B|-10-(8x)---9-(8x)---10-(8x)---10-(8x)---|
G|--9--------9--------11--------11--------| 4x   A-E-F#m-D
D|----------------------------------------|
A|----------------------------------------|
E|----------------------------------------|
Instrumental:
ElGuitar 1
e|----------------------|
B|-14(5x)----12-10(8x)--|
G|--------13------------|  3x
D|----------------------|
A|----------------------|
E|----------------------|

e|----------------------|
B|-14-------------------|
G|----------------------|
D|----------------------|
A|----------------------|
E|----------------------|

ElGuitar 2
e|-------------14-9h12-----------|
B|-10h12-10h12---------10h12h10--|
G|-------------------------------|
D|-------------------------------|
A|-------------------------------|
E|-------------------------------|

AcGuitar
F#m....D (2x)

Verse 3:                                     AcGuitar
ElGuitar1
e|----------------------------------|
B|----------------------------------|
G|-11~-13~--------11~-13~-----------|         D-E-A (3x)
D|---------11~------------12-11-----|         D-E-F#m
A|----------------------------------|
E|----------------------------------|

Chorus 3:
ElGuitar 1                                      AcGuitar
e|--9-------12---------9--------10--------|
B|-10-(8x)---9-(8x)---10-(8x)---10-(8x)---|
G|--9--------9--------11--------11--------|     A-E-F#m-D
D|----------------------------------------|
A|----------------------------------------|
E|----------------------------------------|
ElGuitar 2
e|-------------14-9h12-----------|
B|-10h12-10h12---------10h12h10--|
G|-------------------------------|
D|-------------------------------|
A|-------------------------------|
E|-------------------------------|

aca les va la tablatura de la cancion
pero una cosita, esta es de la version de "Look to You"

adios
saludos a los jovenes de mi iglesia, y a los de las
otras iglesias amigas.

bendiciones.
                       SkaF





Calificar esta versión:
Aviso: Este fichero es trabajo propio de su transcriptor y representa su interpretación personal de la canción. El material contenido en esta página es para exclusivo uso privado, por lo que se prohibe su reproducción o retransmisión, así como su uso para fines comerciales.
Más versiones de All For Love, Hillsong United
All For Love
acordes
All For Love
tablatura
Descubre más canciones de Hillsong United