All Day, Hillsong United (tablatura)

Autor: pangola | 36046 visualizaciones



Póngale mucho oido en el tiempo ay que solo pondré los tabs.
arreglen asu gusto
INTRO!
G|-------------1-------------------|
D|---------2-2---2-----1-2---------|
A|-----1-2---------2-2---------2-1-|
E|-4-4---------------------2-2-----| EL ININTROO SE TOCA VARIAS VESES
(SIGAN LA CANCION

G|---------------------------------|
D|---------------------------------|
A|---0~--2~------------------------|
E|-4~-------2~---------------------| X2

Luego va el intro DE NUEVO
G|-------------1-------------------|
D|---------2-2---2-----1-2---------|
A|-----1-2---------2-2---------2-1-|
E|-4-4---------------------2-2-----| SE TOCA VARIAS VESES
DISCULPEN NO TENGO LOS TIEMPOS XD.

G|---------------------------------|
D|---------------------------------|
A|----------2*---------------------|
E|--4*--0*------2*-----------------|x2

LUEGO ESTO VA ENSEGUIDA
G|---------------------------------|
D|---------------------------------|
A|--2*--0*--2*------2*----------2*-|
E|--------------2*------0*--4*-----|X2

Intro de nuevo varias veses
G|-------------1-------------------|
D|---------2-2---2-----1-2---------|
A|-----1-2---------2-2---------2-1-|
E|-4-4---------------------2-2-----|

se repite esto
G|---------------------------------|
D|---------------------------------|
A|----------2*---------------------|
E|--4*--0*------2*-----------------|x2

G|---------------------------------|
D|---------------------------------|
A|--2*--0*--2*------2*----------2*-|
E|--------------2*------0*--4*-----|X2

LUEGO APLICAMOS ESTO
G|---------------------------------|
D|---------------------------------|
A|-5*-7*-5*-7*-5*-7*5*-7*-2-------|
E|---------------------------------|

G|---------------------------------|
D|---------------------------------|
A|--222---------222----------------|
E|---------------------------------|

Y TERMINA CON ESTO
G|---------------------------------|
D|---------------------------------|
A|--2--0--2------2----------2------|
E|--------------2------0--4--------|X2

G|---------------------------------|
D|---------------------------------|
A|--2--0--2------2----------2*-----|
E|--------------2------0--4*-------|X2

G|---------------------------------|
D|---------------------------------|
A|--2*--0*--2*------2*----------2*-|
E|--------------2*------0*--4*-----|ESTA APRTE SE HACE ASTA EL
FINAL DE LA CANCION

G|---------------------------------|
D|---------------------------------|
A|---------------------------------|
E|---2-----------------------------|

ESPERO QUE LES AYA SERVIDO,
ESTA ALGO CONFUNSA PORUE NO PUSE ALGUNOS TIEMPOS.
Echo por Luis fernando
[email protected]





Calificar esta versión:
Aviso: Este fichero es trabajo propio de su transcriptor y representa su interpretación personal de la canción. El material contenido en esta página es para exclusivo uso privado, por lo que se prohibe su reproducción o retransmisión, así como su uso para fines comerciales.
Más versiones de All Day, Hillsong United
All Day
tablatura
All Day
bajo
Descubre más canciones de Hillsong United