Adonai, Hillsong United (tablatura)

Autor: Anónimo | 35208 visualizaciones



solo o instrumental:
este inicia en el minuto 1:04

e|--14-14-14-14-14-14-14-14--14---------------------|
B|-----------------------------11-11-11-11h12-12-12-|
G|--------------------------------------------------|
D|--------------------------------------------------|
A|--------------------------------------------------|
E|--------------------------------------------------|


e|--------------------------------------------------|
B|--------12-------12-------12--------12--14----12--|
G|--11h13----11h13----11h13----11h13----------------|
D|--------------------------------------------------|
A|--------------------------------------------------|
E|--------------------------------------------------|

e|--11-------11-------11-------12-11----11-------11-|
B|-----14-12----14-12----14-12-------12----14-12----|
G|--------------------------------------------------|
D|--------------------------------------------------|
A|--------------------------------------------------|
E|--------------------------------------------------|


e|--------11-------12-11-----11-------12--14--------|
B|--14-12----14-12-------12-----12-12---------12----|
G|--------------------------------------------------|
D|--------------------------------------------------|
A|--------------------------------------------------|
E|--------------------------------------------------|

Espero que les sirva...





Calificar esta versión:
Aviso: Este fichero es trabajo propio de su transcriptor y representa su interpretación personal de la canción. El material contenido en esta página es para exclusivo uso privado, por lo que se prohibe su reproducción o retransmisión, así como su uso para fines comerciales.
Más versiones de Adonai, Hillsong United
Adonai
acordes
Adonai
tablatura
Descubre más canciones de Hillsong United