Su Hijo Dio, Hillsong (bajo)

Autor: josephrockerlive | 30603 visualizaciones

INTRO
E)---------66----|-------6666666--|  x2
A)------44----66-|----44----------|
D)---33----------|-33-------------|
G)---------------|----------------|

VERSO
E)-------------6666------|-----------6666666---| x2
A)--------4444------6666-|------4444-----------|
D)--3333-----------------|-3333----------------|
G)-----------------------|---------------------|

PRE-CORO
E)--------------------------------------|
A)--44----44----------------------66666-|
D)----------------6-33333333--666-------|
G)-----66----6-5-3----------------------|

E)---------------------------6-6-6-6-|
A)--44----44-------------------------|
D)----------------6-33333333---------|
G)-----66----6-5-3-------------------|

CORO
E)---4-4-4-----------------------------------------------|
A)---------6-6-6-----6-4-4-4-------6-6-6-3-3-3-3-4-4-4-4-|
D)---------------3-3---------3-3-3-----------------------|
G)-------------------------------------------------------|

INTRO X1
VERSO 2 (se toca igual que el anterior)
PRE-CORO
CORO X2

E)--44444444444444444444444444444-1~----4~s/1-|
A)--------------------------------------------|
D)--------------------------------------------|
G)--------------------------------------------|

E)--1~--4~s/1-4444444444444444--|
A)------------------------------|
D)------------------------------|
G)------------------------------|

CORO X2
INTRO X2
Calificar esta versión:
Aviso: Este fichero es trabajo propio de su transcriptor y representa su interpretación personal de la canción. El material contenido en esta página es para exclusivo uso privado, por lo que se prohibe su reproducción o retransmisión, así como su uso para fines comerciales.
Más versiones de Su Hijo Dio, Hillsong
Su Hijo Dio
acordes
Su Hijo Dio
bajo
Descubre más canciones de Hillsong