Salvation Is Here, Hillsong (bajo)

Autor: of_josexxx_albox | 28140 visualizaciones

Intro:

0:13 (x2)
G|-------------------------|
D|-------------------------|
A|-7/14-14-14-14-14-12-14--|
E|-------------------------|
despues
G|-----------------------14/16-14/16--|
D|------------------------------------|
A|--14-14-14-14-14-12-14--------------|
E|---------------------------------

Versos:
G|--------------------------------------------------------------
D|----------------------------------------------------------(x3)
A|-7/14-14-14-14-14-14-14-11-11-11-11-11-11-11-9-9-9-9-9(x7)--|
E|------------------------------------------------------------|
despues
G|---------------------------------------------|
D|---------------------------------------------|
A|------9/11-----9/11------9/119---7--7--7--7-|
E|---12-------12--------12---------------------|

Interlude:
G|-------------------------------------------------------------------|
D|-------------------------------------------------------------------|
A|-7/14-14-14-14-14-14-14-7-7-7-7-7-7-7-9-9-9-9-9-9-9--11(x7)--------| (x2)
E|-------------------------------------------------------------------|

Coro 1:
G|-------------------------------------------------------------------|
D|-------------------------------------------------------------------|
A|-2-2-2-2--2--2------------------------------------------------h1---|
E|---------------0-0-0-0--0--0-2-2-2-2--2--2-4-4-4-4--4--4--4/6------|
despues
G|-------------------------------------------------------|
D|-------------------------------------------------------|
A|-2-2-2-2--2--2---------------4-42/4-4-4/7-7-7---------|
E|---------------0-0-0-0--0--0-------------------0-0-0-0-|

Solo de bajo: esto tomara meses. es la parte mas rapida de la cancion

Parte 1: x4

                G#m Key
G|----------16-16-16-18-18-18-16-16-16-------16----|
D|-18-18-18----------------------------18-18----16-|
A|-------------------------------------------------|
E|-------------------------------------------------|
                B Key
G|----------------------------18-18-18-16-16-------|
D|----------18-18-18-16-16-16----------------18-16-|
A|-14-14-14----------------------------------------|
E|-------------------------------------------------|
                E Key
G|-------------------16-16-16----------16-16-------|
D|----------18-18-18----------18-18-18-------18-16-|
A|-19-19-19----------------------------------------|
E|-------------------------------------------------|
                C#m Key
G|-------------------20-20-20-18-18-18-20-18-20----|
D|----------18-18-18----------------------------21-|
A|-16-16-16----------------------------------------|
E|-------------------------------------------------|


Parte 2: una octava menos

                G#m Key
G|-------4-4-4-6-6-6-4-4-4-----4---|
D|-6-6-6-------------------6-6---6-|
A|---------------------------------|
E|---------------------------------|
                B Key
G|-------------------6-6-6-4-4-----|
D|-------6-6-6-4-4-4-----------6-4-|
A|-2-2-2---------------------------|
E|---------------------------------|
                E Key
G|-------------4-4-4-------4-4-----|
D|-------6-6-6-------6-6-6-----6-4-|
A|-7-7-7---------------------------|
E|---------------------------------|
                C#m Key
G|-------------8-8-8-6-6-6-8-6-8---|
D|-------6-6-6-------------------9-|
A|-4-4-4---------------------------|
E|---------------------------------|
                G#m Key
G|-------4-4-4-6-6-6-4-4-4-----4---|
D|-6-6-6-------------------6-6---6-|
A|---------------------------------|
E|---------------------------------|
                B Key
G|-------------------6-6-6-4-4-----|
D|-------6-6-6-4-4-4-----------6-4-|
A|-2-2-2---------------------------|
E|---------------------------------|
                E Key             C#m Key
G|-------------------------|-6-----6-----6-----6----|
D|-------------------------|------------------------|
A|-7-----7-----7-----7-----|----4-----4-----4-----4-|
E|----0-----0-----0-----0--|------------------------|


Puente:
G|--------------------------------------------------------------|
D|--------------------------------------------------------------|
A|-2-2-2-2--2--2------------------------------------------------| (x2)
E|---------------0-0-0-0--0--0-2-2-2-2--2--2-4-4-4-4--4--4--4---|

Coro 2:
G|------------------------------------------------------|
D|------------------------------------------------------|
A|-2~---------------------------4-42/4-4-4/7-7-7-------|
E|------------------------------------------------0-0-0-|

Final
G|----------|
D|----------|
A|-14~------|
E|----------|


Orden:

Intro
Versos
Coro 1
Intro
Versos
coros 1 (x2)
Solo Bajo
Puente
Coro 2
coro 1
Puente
Intro
Final
Calificar esta versión:
Aviso: Este fichero es trabajo propio de su transcriptor y representa su interpretación personal de la canción. El material contenido en esta página es para exclusivo uso privado, por lo que se prohibe su reproducción o retransmisión, así como su uso para fines comerciales.
Más versiones de Salvation Is Here, Hillsong
Salvation Is Here
acordes
Salvation Is Here
bajo
Descubre más canciones de Hillsong