Desde Mi Interior, Hillsong (acordes)

Autor: ruben | 37262 visualizaciones

amam7cdeem7g
 Intro    4x
  C   .   .   .      G      .     D     .
e--------------12 ~ -------12--------------------------|
b-------13p-------------13----13--15--12---------------|
G-12h14-----14-------12------------------12------------| 4x
D------------------------------------------------------|
A------------------------------------------------------|
E------------------------------------------------------|

Verse 1
C2[C]  G  D          2x

Em7[E]  C2[C]  G  D  2x          this is below

This is normal chord finger placements
Electric Guitar part:
  E . . .   C . . .   G . . .   D . . .

e-----0---------0---------3---------2-0-------------|
b-----------------2-------------------3-------------|
G-------0---------0---------------2-----------------| 2x
D-------2-----2-------------0---0-------------------|
A---2-------3-----------2---------------------------|
E-0-------------------3-----------------------------|


Intro    x2


Verse 2
C2[C]  G  D     2x

Em7[E]  C2[C]  G  D  2x

Electric Guitar part:
E . . .     C . . .   G . . .   D . . .

e-----0---------0---------3-----------2-0-----------|
b-----------------2---------------------3-----------|
G-------0---------0---------------2-0---------------|
D-------2-----2-------------0---0-------------------|
A---2-------3-----------2---------------------------|
E-0-------------------3-----------------------------|

E . . .     C . . .   G . . .   D . . .

e-----0---------0---------3---------2-0-------------|
b-----------------2-------------------3-------------|
G-------0---------0---------------2-----------------|
D-------2-----2-------------0---0-------------------|
A---2-------3-----------2---------------------------|
E-0-------------------3-----------------------------|


Chorus 1
C2[C]  G  Em7[E]  D

C2[C]  Em7[E] D  Am7[Am]

[pause - high hats are sounded then come in]

Intro    x2
  C   .  .  .     G      .     D     .
e-------------12--------12--------------------------|
b-------13-----------13----13--15--12---------------|
G-12h14----14-----12------------------12------------| 2x
D---------------------------------------------------|
A---------------------------------------------------|
E---------------------------------------------------|
Verse 2

C2[C]  G  D     2x

Em7[E]  C2[C]  G  D  2x

Electric Guitar part:
E . . .     C . . .   G . . .   D . . .

e-----0---------0---------3-----------2-0-----------|
b-----------------2---------------------3-----------|
G-------0---------0---------------2-0---------------|
D-------2-----2-------------0---0-------------------|
A---2-------3-----------2---------------------------|
E-0-------------------3-----------------------------|

E . . .   C . . .   G . . .   D . . .

e-----0---------0---------3---------2-0-------------|
b-----------------2-------------------3-------------|
G-------0---------0---------------2-----------------|
D-------2-----2-------------0---0-------------------|
A---2-------3-----------2---------------------------|
E-0-------------------3-----------------------------|

Chorus 1

C2[C]  G  Em7[E]  D

C2[C]  Em7[E] D  Am7[Am]

Chorus 2 [the Everlasting part when it gets a lot louder]

Em7[E]  C2[C]  G  D  2x

G  C2[C]  D  Em7[E]  C  D  C  D

Solo chords
C  G  Em7[E]  D  C  Em7[E]  D  C

Electric Guitar Solo
e-----------------------------------------------------------------|
b-13-13-13-13-13-13-13-13-13-13-13-13-13-13-13-13-----------------|
G-14-14-14-14-14-14-14-14h12-12-12-12-12-12-12-12-----------------|
D-----------------------------------------------------------------|
A-----------------------------------------------------------------|
E-----------------------------------------------------------------|

e-----------------------------------------------------------------|
b-17-17-17-17-17-17-17-17/18-18-18-18-18-18-18-18-----------------|
G-17-17-17-17-17-17-17-17-17-17-17-17-17-17-17-17-----------------|
D-----------------------------------------------------------------|
A-----------------------------------------------------------------|
E-----------------------------------------------------------------|

e---------------------------------------------------------------[12]----|
b--13h12----------13h12-------------------------------------12[13]------|
G--------14/16\12--------14-14-14/16\12------------------14-------------|
D----------------------------------------14-15-14-12~ ~ ~--14-----------|
A-----------------------------------------------------------------------|
E-----------------------------------------------------------------------|


e-----------------------------------------------------------------|
b-13-12-------17-17-17-17-17-17-17-17-17-17-----------------------|
G-------14/16/17----------17--------------------------------------|
D-----------------------------------------------------------------|
A-----------------------------------------------------------------|
E-----------------------------------------------------------------|

e-----------------------------------------------------------------|
b-13-12-------17-17-17-17-17-17-17-17-17-17-----------------------|
G-------14/16/17----------17--------------------------------------|
D-----------------------------------------------------------------|
A-----------------------------------------------------------------|
E-----------------------------------------------------------------|

e-----17-----17-----17----17-----17-------19 ~ ~------------------|
b--15-----15-----15----15-----15----15/17-------------------------|
G-----------------------------------------------------------------|
D-----------------------------------------------------------------|
A-----------------------------------------------------------------|
E-----------------------------------------------------------------|


Chorus 1

C2[C]  G  Em7[E]  D

C2[C]  Em7[E] D  Am7[Am]

Chorus 2       2x

Em7[E]  C2[C]  G  D  2x

G  C2[C]  D  Em7[E]  C  D  C  D


Outro just stay on C2 for it

e---------------------------|
b---------------15-13---0---|
G---12-11-10p0--------14~---| 6x
D---------------------------|
A---------------------------|
E---------------------------|

end on:


e-----------------0-------|[let hang]
b-------------------------|
G-12-11-10p0---15-13------|
D-------------------------|
A-------------------------|
E-------------------------|

 
Calificar esta versión:
Aviso: Este fichero es trabajo propio de su transcriptor y representa su interpretación personal de la canción. El material contenido en esta página es para exclusivo uso privado, por lo que se prohibe su reproducción o retransmisión, así como su uso para fines comerciales.
Más versiones de Desde Mi Interior, Hillsong
Desde Mi Interior
acordes
Desde Mi Interior (ver 2)
acordes
Desde Mi Interior
tablatura
Descubre más canciones de Hillsong