Chispa Adecuada (rarezas), Heroes Del Silencio (tablatura)

Autor: Anónimo | 35128 visualizaciones



Hola a todos, esta es mi primera transcripcion, espero que 
les guste, esta es una forma mas facil y mas completa de 
tocar la chispa adecuada, aparte se escucha muy chido. Lo 
que pasa es que me puse a checar las demás y como que estan 
mas complejas y no se oyen bien. Así que ahi les va

(Intro)

E------------------------------------------------------
A------------------------------------------------------
D-0----------------------------------------------------
g--2---2-3-5-7-5-7-5h7-7-7-5h7-7-9-9-9h10-9-7-5-5h7-2--
b---3--------------------------------------------------
e----0-------------------------------------------------

E------------------------------------------------------
A------------------------------------------------------
D-0----------------------------------------------------
g--2---------------------------------------------------
b---3------------------------------3-1-1h3-3-----------
e----5-5-5-3-5-6-5-3-1-1h3-1-0-1-0---------------------

Aqui empieza lo demás, como casi toda la cancion va igual será el riff 1

(riff1)
E------------------------------------------------------
A-3-3h5-5-----------0-----------0-1-----------3--------
D-----------------------------------3---3-------5------
g---------7---7---5---5-------5-------3---3-------5----
b-----------6---5-------5h6-5---------------1----------
e------------------------------------------------------

E-------------------------------------------1-1--------
A-3-3h5-5-----------0---------0-1-----------3-3--------
D---------------------------------3---3-----3-3--------
g---------7---7---5---5-----5-------3---3---2-2--------
b-----------6---5-------5-5---------------1-1-1--------
e-----------------------5-------------------1-1--------

E------------------------------------------------------
A-3-3h5-5-----------0-----------0-1-----------3--------
D-----------------------------------3---3-------5------
g---------7---7---5---5-------5-------3---3-------5----
b-----------6---5-------5h6-5---------------1----------
e------------------------------------------------------

E-------------------------------------------1----------
A-3-3h5-5-----------0---------0-1-----------3----------
D---------------------------------3---3-----3----------
g---------7---7---5---5-----5-------3---3---2----------
b-----------6---5-------5-5---------------1-1-6-5-3----
e-----------------------5-------------------1----------

E---------/--------------------------------------------
A---------/--------------------------------------------
D---------/--------------------------------------------
g---------/--------------------------------------------
b-1h3-3---/--------------------------------------------
e---------/--------------------------------------------

Bueno ahora vamos a lo que es el coro que llamaremos riff2

(riff2)
E------------------------------------------------------
A------------------------------------------------------
D------------------------------------------------------
g------------------------------------------------------
b-3-2-3-7-7-5-7-10-10-8h6-7h5-5h3-3h2-3-2-3-7-7-5-7-10-
e------------------------------------------------------

E------------------------------------------------------
A---------------3-3h5-5...etc--------------------------
D------------------------------------------------------
g------------------------------------------------------
b-10-8h6-7h5-5-----------------------------------------
e------------------------------------------------------

Así se va toda la rola, donde termina el coro de No se distinguir 
entra un grupo de acordes que son:

Dm,Am,Bb,C     Y se toca una vez con C y otra con F
Dm,Am,Bb,F

Los acordes del coro son:

D,F#m,G,A      Esto es durante todoel Coro

Con la letra se usan los mismos acordes que se usan al terminar el coro.

Si la tocan a dos guitarras se oye muy chido.

Si tienen alguna duda, aclaración, o correccioón favor 
de escribirme a gogoladze15@hotmail.com

Chao!!!!

Fuente original: LaCuerda
Colaborador original: Alonso Valles [gogoladze15@hotmail.com]





Calificar esta versión:
Aviso: Este fichero es trabajo propio de su transcriptor y representa su interpretación personal de la canción. El material contenido en esta página es para exclusivo uso privado, por lo que se prohibe su reproducción o retransmisión, así como su uso para fines comerciales.
Más versiones de Chispa Adecuada (rarezas), Heroes Del Silencio
Chispa Adecuada (rarezas)
acordes
Chispa Adecuada (rarezas)
tablatura
Chispa Adecuada (rarezas) (ver 2)
tablatura
Chispa Adecuada (rarezas)
bajo
Descubre más canciones de Heroes Del Silencio