Babel, Heroes Del Silencio (bajo)

Autor: Anónimo | 21587 visualizaciones



Bajo
                                                                            
G||------------------|-----------4--4--4--4--3--|--------------------------|
D||------------------|--4--4--4-----------------|--4--4--4--4--4--4--4--4--|
A||------------------|--------------------------|--------------------------|
E||------------------|--------------------------|--------------------------|


                                                      
-----------4--4--4--4--3--|--------------------------|
--4--4--4-----------------|--4--4--4--4--4--4--4--4--|
--------------------------|--------------------------|
--------------------------|--------------------------|


                                                      
--------------------------|--------------------------|
--4--4--4--4--2--2--2--2--|--1--1--1--1--1--1--1--1--|
--------------------------|--------------------------|
--------------------------|--------------------------|


                                                      
--------------------------|--------------------------|
--2--2--2--2--2--2--2--2--|--4--4--4--4--4--4--4--4--|
--------------------------|--------------------------|
--------------------------|--------------------------|


                                                                            
--------------------------|------------------------|-----------------------|
--2--2--2--2--2--2--2--2--|--1----1--1--1----1--1--|--1----1--1--1----1----|
--------------------------|------------------------|-----------------------|
--------------------------|------------------------|-----------------------|


                                                                        
----------------------|------------------------|-----------------------|
--1--1------1--1------|-------------2--2----2--|--1--1----1----1--1----|
----------------------|--4--4----4-------------|-----------------------|
----------------------|------------------------|-----------------------|


                                                                     
--------------------|----------------------|------------------------|
-----------2--------|--1--1------1--1------|-------------2--2----2--|
--4-----------------|----------------------|--4--4----4-------------|
--------------------|----------------------|------------------------|


                                                                    
-----------------------|--------------------|--1------1--1----1----|
--1--1----1----1--1----|--2-----------------|----------------------|
-----------------------|-----------2--------|----------------------|
-----------------------|--------------------|----------------------|


                                                                   
----------------------|----------------------|--1-----------------|
--2------2--2----2----|--4------4--4----2----|-----------2--------|
----------------------|----------------------|--------------------|
----------------------|----------------------|--------------------|


                                                                     
--1------1--1----1----|----------------------|----------------------|
----------------------|--2------2--2----2----|--4------4--4----2----|
----------------------|----------------------|----------------------|
----------------------|----------------------|----------------------|


                                                                        
-----------------------|----------------------|------------------------|
--1----1--1--1----1----|--1--1------1--1------|-------------2--2----2--|
-----------------------|----------------------|--4--4----4-------------|
-----------------------|----------------------|------------------------|


                                                                    
-----------------------|--------------------|----------------------|
--1--1----1----1--1----|-----------2--------|--1--1------1--1------|
-----------------------|--4-----------------|----------------------|
-----------------------|--------------------|----------------------|


                                                                      
------------------------|-----------------------|--------------------|
-------------2--2----2--|--1--1----1----1--1----|--2-----------------|
--4--4----4-------------|-----------------------|-----------2--------|
------------------------|-----------------------|--------------------|


                                                                     
--1------1--1----1----|----------------------|----------------------|
----------------------|--2------2--2----2----|--4------4--4----2----|
----------------------|----------------------|----------------------|
----------------------|----------------------|----------------------|


                                                                   
--1-----------------|--1------1--1----1----|----------------------|
-----------2--------|----------------------|--2------2--2----2----|
--------------------|----------------------|----------------------|
--------------------|----------------------|----------------------|


                                                                         
----------------------|----------------------|--------------------------|
--4------4--4----2----|--2----2------2--2----|--1--1--1--1--1--1--1--1--|
----------------------|----------------------|--------------------------|
----------------------|----------------------|--------------------------|


                                                      
--------------------------|--------------------------|
--------------------------|--------------------------|
--4--4--4--4--4--4--4--4--|--2--2--2--2--2--2--2--2--|
--------------------------|--------------------------|


                                                      
--------------------------|--------------------------|
--------------------------|--------------------------|
--4--4--4--4--4--4--4--4--|--------------------------|
--------------------------|--4--4--4--4--4--4--4--4--|


                                                      
--------------------------|--------------------------|
--------------------------|--------------------------|
--4--4--4--4--4--4--4--4--|--------------------------|
--------------------------|--4--4--4--4--4--4--4--4--|


                                                      
--------------------------|--------------------------|
--------------------------|--1--1--1--1--1--1--1--1--|
--4--4--4--4--4--4--4--4--|--------------------------|
--------------------------|--------------------------|


                                                      
--------------------------|--------------------------|
--------------------------|--------------------------|
--4--4--4--4--4--4--4--4--|--2--2--2--2--2--2--2--2--|
--------------------------|--------------------------|


                                                      
--------------------------|--------------------------|
--------------------------|--------------------------|
--4--4--4--4--4--4--4--4--|--------------------------|
--------------------------|--4--4--4--4--4--4--4--4--|


                                                      
--------------------------|--------------------------|
--------------------------|--------------------------|
--4--4--4--4--4--4--4--4--|--------------------------|
--------------------------|--4--4--4--4--4--4--4--4--|


                                                      
--------------------------|--------------------------|
--------------------------|--------------------------|
--4--4--4--4--4--4--4--4--|--------------------------|
--------------------------|--4--4--4--4--4--4--4--4--|


                                                      
--------------------------|--------------------------|
--------------------------|--------------------------|
--------------------------|--------------------------|
--4--4--4--4--4--4--4--4--|--2--2--2--2--2--2--2--2--|


                                                      
--------------------------|--------------------------|
--------------------------|--------------------------|
--------------------------|--------------------------|
--0--0--0--0--0--0--0--0--|--0--0--0--0--0--0--0--0--|


                                                      
--------------------------|--------------------------|
--------------------------|--------------------------|
--------------------------|--------------------------|
--2--2--2--2--2--2--2--2--|--2--2--2--2--2--2--2--2--|


                                                      
--------------------------|--------------------------|
--------------------------|--------------------------|
--------------------------|--------------------------|
--0--0--0--0--0--0--0--0--|--2--2--2--2--2--2--2--2--|


                                                      
--------------------------|--------------------------|
--------------------------|--------------------------|
--------------------------|--------------------------|
--0--0--0--0--0--0--0--0--|--0--0--0--0--0--0--0--0--|


                                                      
--------------------------|--------------------------|
--------------------------|--------------------------|
--------------------------|--------------------------|
--2--2--2--2--2--2--2--2--|--4--4--4--4--4--4--4--4--|


                                                      
--------------------------|--------------------------|
--------------------------|--------------------------|
--------------------------|--------------------------|
--4--4--4--4--4--4--4--4--|--2--2--2--2--2--2--2--2--|


                                                      
--------------------------|--------------------------|
--------------------------|--1--1--1--1--1--1--1--1--|
--------------------------|--------------------------|
--0--0--0--0--0--0--0--0--|--------------------------|


                                                      
--------------------------|--------------------------|
--------------------------|--------------------------|
--4--4--4--4--4--4--4--4--|--2--2--2--2--2--2--2--2--|
--------------------------|--------------------------|


                                                      
--------------------------|--------------------------|
--------------------------|--------------------------|
--4--4--4--4--4--4--4--4--|--------------------------|
--------------------------|--4--4--4--4--4--4--4--4--|


                                                      
--------------------------|--------------------------|
--------------------------|--------------------------|
--4--4--4--4--4--4--4--4--|--------------------------|
--------------------------|--4--4--4--4--4--4--4--4--|


                                                      
--------------------------|--------------------------|
--------------------------|--1--1--1--1--1--1--1--1--|
--4--4--4--4--4--4--4--4--|--------------------------|
--------------------------|--------------------------|


                                                      
--------------------------|--------------------------|
--------------------------|--------------------------|
--4--4--4--4--4--4--4--4--|--2--2--2--2--2--2--2--2--|
--------------------------|--------------------------|


                                                      
--------------------------|--------------------------|
--------------------------|--------------------------|
--4--4--4--4--4--4--4--4--|--------------------------|
--------------------------|--4--4--4--4--4--4--4--4--|


                                                      
--------------------------|--------------------------|
--------------------------|--------------------------|
--4--4--4--4--4--4--4--4--|--------------------------|
--------------------------|--4--4--4--4--4--4--4--4--|


                                                      
--------------------------|-----------4--4--4--4--3--|
--------------------------|--4--4--4-----------------|
--4--4--4--4--4--4--4--4--|--------------------------|
--------------------------|--------------------------|


                                                      
--------------------------|-----------4--4--4--4--3--|
--4--4--4--4--4--4--4--4--|--4--4--4-----------------|
--------------------------|--------------------------|
--------------------------|--------------------------|


                                                      
--------------------------|--------------------------|
--4--4--4--4--4--4--4--4--|--4--4--4--4--2--2--2--2--|
--------------------------|--------------------------|
--------------------------|--------------------------|


                                                      
--------------------------|--------------------------|
--1--1--1--1--1--1--1--1--|--2--2--2--2--2--2--2--2--|
--------------------------|--------------------------|
--------------------------|--------------------------|


                                                      
--------------------------|--------------------------|
--4--4--4--4--4--4--4--4--|--2--2--2--2--2--2--2--2--|
--------------------------|--------------------------|
--------------------------|--------------------------|


                                                   
--------------------------|----------------------||
--1--1--1--1--1--1--1--1--|--1--1--1--1----------||
--------------------------|----------------------||
--------------------------|----------------------||

Fuente original: LaCuerda
Colaborador original: Nookie [alpiojo87@hotmail.com]





Calificar esta versión:
Aviso: Este fichero es trabajo propio de su transcriptor y representa su interpretación personal de la canción. El material contenido en esta página es para exclusivo uso privado, por lo que se prohibe su reproducción o retransmisión, así como su uso para fines comerciales.
Más versiones de Babel, Heroes Del Silencio
Babel
acordes
Babel
tablatura
Babel
bajo
Descubre más canciones de Heroes Del Silencio