En Las Calles De Liniers, Hermetica (bajo)

Autor: Anónimo | 25355 visualizaciones

Intro y durante el solo de guitarra sin la 1er parte

G--------+---------------------------------------------------------|
D--2-----+---------------------------------------------------------|
A----3-2-+---------------------------------------------------------|
E--------+-1-1-1-1-1-1--3-3-3-3-3-3--5-5-5-5-5-5---8-5---8-----|


G--------------------------------------------------------|
D--------------------------------------------------------|
A--------------------------------------------------------|x2
E----1-1-1-1-1-1--5--------8--7--5----------------------|


En las mugrientas esquinas de Liniers...
G---------------------------------------------------------------| x4
D---------------------------------------------------------------|
A---6-6-6-6-6-6-6-6-6-6-6-6-6-6---------------------------------|
E----------------------------------5-5-5-5-5-5-5-5-5-5-5-5-5-5--|

La idolatria ...
G---------------------------------------------------------------| x4
D---------------------------------------------------------------|
A--3-3-3-3-3-3-3-3-3-3-3-3-3-3----------------------------------|
E---------------------------------5-5-5-5-5-5-5-5-5-5-5-5-5-5---|


 Solo transmito lo que observo // eso acontece cuando complento el presente
G---------------------------------------------------------| 
D---------------------------------------------------------| 
A---------------------------------------------------------|
E-1-1-1-1-1-1--3-3-3-3-3-3--5-5-5-5-5-5---8-5---8-----|

No es una invension de mi mente no // en las calles de liniers
G--------------------------------------------------------|
D--------------------------------------------------------|
A--------------------------------------------------------|
E----1-1-1-1-1-1--5--------8--7--5----------------------|


Final:
En las calles...
G---------------------------------------------------------------|
D---------------------------------------------------------------|
A------6-6-6-------6-6-6-------6-6-6-------4--3--1--------------|
E--------------5-----------5-----------5------------------------|



Aguante Jorge Nuñez loco, SOY UN CAPO!!! Saludos a Angi que me re mata

Fuente original: LaCuerda
Colaborador original: el capo del sur J. Núñez [jorge_cipo10@hotmail.com]
Calificar esta versión:
Aviso: Este fichero es trabajo propio de su transcriptor y representa su interpretación personal de la canción. El material contenido en esta página es para exclusivo uso privado, por lo que se prohibe su reproducción o retransmisión, así como su uso para fines comerciales.
Más versiones de En Las Calles De Liniers, Hermetica
En Las Calles De Liniers
tablatura
En Las Calles De Liniers
bajo
Descubre más canciones de Hermetica