Desterrando A Los Oscurantistas, Hermetica (bajo)

Autor: Anónimo | 16402 visualizaciones

Desterrando a los oscurantintas- BAs

Intro de Iorio: lo hace con ligados pero 
si se manejan lo van a hacer bien
G|------------------------------------------------|
D|------------------------------------------------|
A|--3--5-5-5-5-5--3--5-5-5-5-5---3--5-5-5-5-5-----|
E|------------------------------------------------|

G|-------------------------------------|
D|---5---------------------------------|
A|-5----7---7---7----4-5-4-5--7-6-5-4--|
E|-------------------------------------|


Por temer...
G|----------------------------------------------------|
D|-----------------------------------------5----------|
A|-4-4-4-4-4-4-5-4-4-4-4-4-4-7-4-4-4-4-4-4----7-6-5-4-|
E|----------------------------------------------------|


Guerra, prefabricaron...
G|-----------------------------|
D|-----------------------------|
A|--7-7-7-7-7-7-7-10--9--5--7--|
E|-----------------------------|

Muerte siguen sembrando ...
G|-----------------------------|
D|-----------------------------|
A|--7-7-7-7-7-7-7-10--9--5--7--|
E|-----------------------------|

  Sigo en pie sin detener mi motor...
G|----------------------------------------|
D|----------------------------------------|
A|-2-2-2-2-2-2-3-3-3-3-----2-2-2-2-2-2-3--|
E|----------------------------------------|

G|------------------------------------------------|
D|------------------------------------------------|
A|--2-2-2-2-2-2-3-3-3-3-3----5-5-5-4-5-4----------|
E|------------------------------------------------|

 el destierro de los oscurantistas, y base de la primer parte del solo:
G|------------------------------------------------------------------------------|
D|-------------------------------5----------------------------------------------|
A|-7-7-7-7-5-7-7-7-7-5-7-7-7-7-5---7-7-7-7-5-7-7-7-7-5-7-7-7-7-4-5-4-5--7-6-5-4-|
E|------------------------------------------------------------------------------|

  Inter “parecido a la intro de Buitres de Almafuerte”
G|-------------------|
D|-------------------|
A|--------5----------|
E|--3-2-3---3-2-3-0--|

  2da parte del solo
G|-------------------------------------------------------|
D|-------------------------------------------------------|
A|-------------------------------------3-3-3-3-3-3-2-1---|
E|-5-5-5-5-5-3-2-2-2-2-2-3-5-5-5-5-5-3-----------------5-|


G|------------------------------------------------------------------------------|
D|-------------------------------5----------------------------------------------|
A|-7-7-7-7-5-7-7-7-7-5-7-7-7-7-5---7-7-7-7-5-7-7-7-7-5-7-7-7-7-4-5-4-5--7-6-5-4-|
E|------------------------------------------------------------------------------|
  
  Final: desterrando a los oscurantistas
G|------------------------------------------------|
D|------------------------------------------------|
A|--4-5--4-5--4-5------7-7-7-7-7-7--------(7)-----|
E|------------------------------------------------|

Fuente original: LaCuerda
Colaborador original: el capo del sur J. Núñez [jorge_cipo10@hotmail.com]
Calificar esta versión:
Aviso: Este fichero es trabajo propio de su transcriptor y representa su interpretación personal de la canción. El material contenido en esta página es para exclusivo uso privado, por lo que se prohibe su reproducción o retransmisión, así como su uso para fines comerciales.
Más versiones de Desterrando A Los Oscurantistas, Hermetica
Desterrando A Los Oscurantistas
tablatura
Desterrando A Los Oscurantistas
bajo
Descubre más canciones de Hermetica