Del Colimba, Hermetica (tablatura)

Autor: Anónimo | 24731 visualizaciones

Del Colimba (Solo)

|---------------------------8--7--8--7---------10--8--7----------------------------------|
|-10--8---------------------------------8----------------8--7-----8----------------------|
|---------9----10-9--------------------------------------------------10--9--10--9--7-----|
|--------------------10---------------------------------------------------------------10-|
|----------------------------------------------------------------------------------------|
|----------------------------------------------------------------------------------------|

|--------------------------7--8--10--8--7----------------8--------10ful--10-8---10---8-10---8-----|
|---------------------10--------------------10---8--10------10---------------------------------10-|
|-7--9--10--9--7---9------------------------------------------------------------------------------|
|-------------------------------------------------------------------------------------------------|
|-------------------------------------------------------------------------------------------------|
|-------------------------------------------------------------------------------------------------|

|----------------------------------------------------7----------7------------------------8-10-8-----|
|-8-------------------------------------------10--8------10--8--------10----------10ful----------10-|
|-----10-9--10--9-7------10-9-7--------7--9---------------------------------------------------------|
|--------------------10-----------10----------------------------------------------------------------|
|---------------------------------------------------------------------------------------------------|
|---------------------------------------------------------------------------------------------------|

Fuente original: LaCuerda
Colaborador original: Tanito_v8 [atravezandotodolimite_14@hotmail.com]
Calificar esta versión:
Aviso: Este fichero es trabajo propio de su transcriptor y representa su interpretación personal de la canción. El material contenido en esta página es para exclusivo uso privado, por lo que se prohibe su reproducción o retransmisión, así como su uso para fines comerciales.
Más versiones de Del Colimba, Hermetica
Del Colimba
tablatura
Del Colimba (ver 2)
tablatura
Del Colimba
bajo
Descubre más canciones de Hermetica