Deja De Robar, Hermetica (tablatura)

Autor: Anónimo | 34001 visualizaciones

Intro y estribillos
e|-------------+-------------+---------------
B|-------------+-------------+---------------
G|-9-9-7--10-9-+-------------+---------------
D|-9-9-7--10-9-+--9-9-7-7-10-+---------------
A|-7-7-5--8--7-+--7-7-5-5-8--+-------8-7-----
E|-------------+-------------+-8-7-8-----8-7-
Entre frase y frase se puede machacar la sexta
(6ta) cuerda en mi.


Versos
e|-----------------------------------------------
B|-----------------------------------------------
G|-----------------------------------------------
D|----------------7--9------------------10-9-----
A|-2--------------5--7------------------8--7-----
E|-0-0-0-0-0-0-0-------0-0-0-0-0-0-0-0-----------
     PM.........       ...............

e|------------------------------------------------
B|------------------------------------------------
G|------------------------------------------------
D|----------------7--9----------------------------
A|-2--------------5--7--------------------8-7-----
E|-0-0-0-0-0-0-0--------0-0-0-0-0-0-8-7-8-----8-7-
     PM.........        ...........


Corte
e|-------------------------------
B|-------------------------------
G|-------------------------------
D|------9-8-9-------10-9-10--10--
A|-2-2--7-6-7--2-2--8--7-8---10--
E|-0-0---------0-0-----------8---

e|-------------------------------
B|-------------------------------
G|-------------------------------
D|------9-8-9-------10-9-10--11--
A|-2-2--7-6-7--2-2--8--7-8---11--
E|-0-0---------0-0-----------9---


 C#5 / D5 / E5
De quien destruye el cielo eres servidor,
 C#5 / C5 /
el vaciamiento esta en vos.

Solo
Machaque en 6ta cuerda y el final de los versos
(8-7-8...)


Mientras quemo las hojas de mi encarnación.
Estoy feliz de no ser parte de tu glamoroso juego.
Ya no engañes con tu vicio de hablar por hablar.
Se que pretendes hacer moda nuestros sentimientos.

Deja de robar,
ganate tu pan.
O es que nada mas
puedes tu hacer.

El metal tiene su historia y la madera tambin.
Pero el plstico que vistes evidencia que no existes.
En el cemento de las ratas no me encontrarás.
Yo estoy quemando combustible sobre rutas desiertas.

Por tu falsedad
no me detendár.
Ni me alcanzarás,
con tu estupidez.

De quien destruye el cielo eres servidor.
El vaciamiento está en vos.
Los tuyos se enredaron por eso no están
luchando aun por el metal.
Por el metal.

Deja de robar,
ganate tu pan.
O es que nada mas
puedes tu hacer.

Deja de robar,
ganate tu pan.

Fuente original: LaCuerda
Colaborador original: Jorge Ruiz [kjeldar_argento@yahoo.com.ar]
Calificar esta versión:
Aviso: Este fichero es trabajo propio de su transcriptor y representa su interpretación personal de la canción. El material contenido en esta página es para exclusivo uso privado, por lo que se prohibe su reproducción o retransmisión, así como su uso para fines comerciales.
Más versiones de Deja De Robar, Hermetica
Deja De Robar
tablatura
Deja De Robar (ver 2)
tablatura
Deja De Robar
bajo
Descubre más canciones de Hermetica