No Soy Digno, Hermana Glenda (tablatura)

Autor: Anónimo | 37742 visualizaciones



NO SOY DIGNO 
(Lc 7,6)    

- se refiere a menor  Sim = Sim
                                                                   
e|-------0------------0-------------0------------2--------------2------|
B|-2---2---2--------2---2---------0---0----2---2---2-----3----3---3----|
G|---2-------2----2-------2--1----------1----2-------2------2-------2--|
D|------------------------------2--------------------------------------|
A|-0------------0----------------------------------------0-------------|
E|---------------------------0-------------2---------------------------|


e|-------4------------4------------2--------------2-------------2------------0-----|
B|-5---5---5--------5---5----3---3---3----------3---3-----3---3---3--------0---0---|
G|---6-------6----6-------6----4-------4------4-------4-----2-------2--1---------0-|
D|-----------------------------------------------------------------------2---------|
A|-4------------4------------2------------2-4-------------0------------------------|
E|---------------------------------------------------------------------0-----------|


LA                         MI        FA#m   RE                        DO#m     SIm
No soy digno de que entres tú en mi casa.  No soy digno de que entres tú en mi casa 
RE                         MI  LA    FA#m  SI                         RE        MI
No soy digno de que entres tú en mi casa.  No soy digno de que entres tú en mi casa.
LA                     MI           FA#m         RE               DO#m          SIm
Pero dime una palabra tuya y yo me sanaré. Pero dime una palabra tuya y yo me sanaré
      RE                MI    LA     FA#m   SIm                    RE            MI
Solo dime una palabra tuya y yo me sanaré. Solo dime una palabra tuya y yo me sanaré. 


LA                    MI              FA#m
Sólo dame un aliento tuyo y yo tendré vida.
RE                    DO#m             SIm
Sólo dame un aliento tuyo y yo tendre vida.
RE                    MI    LA         FA#m    
Sólo dame un aliento tuyo y yo daré la vida.
SIm                   RE                MI
Sólo dame un aliento tuyo y yo daré la vida.


LA                         MI        FA#m   RE                        DO#m     SIm
No soy digno de que entres tú en mi casa.  No soy digno de que entres tú en mi casa 
RE                         MI  LA    FA#m  SI-.                       RE        MI
No soy digno de que entres tú en mi casa.  No soy digno de que entres tú en mi casa.
LA                    MI          FA#m
Sólo dame una mirada tuya y yo podré ver.
      RE               DO#m         SIm
Sólo dame una sonrisa tuya y yo podré reír.
      RE               MI    LA      FA#m
Sólo dame una sonrisa tuya y yo haré reír.
 SIm                   RE             MI
Sólo dame una sonrisa tuya y yo haré reír.


e|-------0------------0-------------0------------2--------------2------|
B|-2---2---2--------2---2---------0---0----2---2---2-----3----3---3----|
G|---2-------2----2-------2--1----------1----2-------2------2-------2--|
D|------------------------------2--------------------------------------|
A|-0------------0----------------------------------------0-------------|
E|---------------------------0-------------2---------------------------|


e|-------4------------4------------2--------------2-------------2------------0-----|
B|-5---5---5--------5---5----3---3---3----------3---3-----3---3---3--------0---0---|
G|---6-------6----6-------6----4-------4------4-------4-----2-------2--1---------0-|
D|-----------------------------------------------------------------------2---------|
A|-4------------4------------2------------2-4-------------0------------------------|
E|---------------------------------------------------------------------0-----------|


LA                         MI        FA#    RE                        DO#m     SIm
No soy digno de que entres tú en mi casa.  No soy digno de que entres tú en mi casa 
RE                         MI  LA    FA#m  SI-.                       RE        MI
No soy digno de que entres tú en mi casa.  No soy digno de que entres tú en mi casa.
LA                     MI            FA#m
Sólo dame una caricia tuya y yo acariciaré. 
      RE               DO#m         SIm
Sólo dame una caricia tuya y yo acariciaré. 
      RE               MI   LA      FA#
Pero dime una palabra tuya y eso bastará.
 SIm                   RE           MI
Sólo dime una palabra tuya y eso bastará.


LA                         MI        FA#    RE                        DO#m     SIm
No soy digno de que entres tú en mi casa.  No soy digno de que entres tú en mi casa 
RE                         MI  LA    FA#m  SI-.                       RE        MI
No soy digno de que entres tú en mi casa.  No soy digno de que entres tú en mi casa.


Liturgia

Es un canto muy apropiado para el momento de la comunión en la Eucaristía.
También se  puede utilizar en convivencias y adoración al Santísimo Sacramento.

**¿Somos dignos de que Dios entre a nuestra vida?¿Somos dignos de que Dios entre a nuestra casa?**





Calificar esta versión:
Aviso: Este fichero es trabajo propio de su transcriptor y representa su interpretación personal de la canción. El material contenido en esta página es para exclusivo uso privado, por lo que se prohibe su reproducción o retransmisión, así como su uso para fines comerciales.
Más versiones de No Soy Digno, Hermana Glenda
No Soy Digno
acordes
No Soy Digno
tablatura
Descubre más canciones de Hermana Glenda