El Camino De La Vida, Hector Ochoa (tablatura)

Autor: danielbeni | 43583 visualizaciones



INTRO

e|-7--------------|-7-------------|-7---------------7vv-|
B|----9----9---9--|---9---9-----9-|---9----9-----9------|
G|-------9---9----|-----9----9----|------9-----9--------|
D|----------------|---------------|---------------------|
A|----------------|---------------|---------------------|
E|----------------|---------------|---------------------|

e|-8-----------------|-8--------------|-8----------------8vv-|
B|----10----10---10--|---10--10----10-|---10----10---10------|
G|-------9-----9-----|------9----9----|------9-----9---------|
D|-------------------|----------------|----------------------|
A|-------------------|----------------|----------------------|
E|-------------------|----------------|----------------------|

e|-10----------------|-10---------------|-10---------------10vv-|
B|----12----12---12--|---12---12-----12-|---12----12-----12-----|
G|-------12---12-----|-----12----12-----|------12-----12--------|
D|-------------------|------------------|-----------------------|
A|-------------------|------------------|-----------------------|
E|-------------------|------------------|-----------------------|

e|-12----------------|-12---------------|-12---------------12vv-|
B|----13----13---13--|---13---13-----12-|---13----13-----13-----|
G|-------12---12-----|-----12----12-----|------12-----12--------|
D|-------------------|------------------|-----------------------|
A|-------------------|------------------|-----------------------|
E|-------------------|------------------|-----------------------|


e|-12-12---10--8--7--|
B|-13-13---12--10-9--|
G|-12-12---12--9--9--|
D|-------------------|
A|-------------------|
E|-------------------|





Comentarios del colaborador: lacuerda.net

Calificar esta versión:
Aviso: Este fichero es trabajo propio de su transcriptor y representa su interpretación personal de la canción. El material contenido en esta página es para exclusivo uso privado, por lo que se prohibe su reproducción o retransmisión, así como su uso para fines comerciales.
Más versiones de El Camino De La Vida, Hector Ochoa
El Camino De La Vida
acordes
El Camino De La Vida
tablatura
El Camino De La Vida (ver 2)
tablatura
Descubre más canciones de Hector Ochoa