Barracuda (intro), Heart (tablatura) (ver 2)

Autor: woleyon | 14383 visualizaciones

El rasgueo va abajo, abajo-arriba-abajo el rasgue se aplica solo aki

1||-----------------------------------------
2||-----------------------------------------
3||-----------------------------------------       X8     
4||----------------------------------------- 
5||-2---2-2-2-------------------------------
6||-0---0-0-0-------------------------------

aki los 2 primeros rasqueos son abajo y los otros 2 son arriba

1||-----------------------------------------
2||-----------------------------------------
3||-----------------------------------------    esto despues del primer paso         
4||------------<12>-----5-------------------
5||--4--5------<12>-----5-------------------
6||--2--3------<12>-----5-------------------



asi va la intro y parte de la cancion con la excepción de que cuando se toque por segunda vez la segunda parte no se va a tocar el ultimo rasgueo q es 5 5 5

espero lo entiendan es mi primera tablaturas espero les sirva :D
Calificar esta versión:
Aviso: Este fichero es trabajo propio de su transcriptor y representa su interpretación personal de la canción. El material contenido en esta página es para exclusivo uso privado, por lo que se prohibe su reproducción o retransmisión, así como su uso para fines comerciales.
Más versiones de Barracuda (intro), Heart
Barracuda (intro)
tablatura
Barracuda (intro) (ver 2)
tablatura
Descubre más canciones de Heart