If We Were A Movie, Hannah Montana/miley Cyrus (tablatura)

Autor: militha08 | 28102 visualizaciones

Intro: 
e|------------------------------------------|
B|------------------------------------------|
G|9-----6-----------4-----------6-----------|
D|9-----6-----7-----4-----6-----4-----7-----|
A|7-----4-----7-----2-----6-----4-----7-----|
E|------------5-----------4-----------5-----|
  x2   x3-4   x4    x2   x3    x3     x1


Verse: ( distorcion )
e|---------------|
B|---------------|
G|6-----4--------|
D|6-----4-----7--|
A|4-----2-----7--|
E|------------5--|
“Oh, oh, there you go again…”

Pre-chorus
e|------------------|
B|------------------|
G|----let---4-let---|
D|--7—ring--4-ring--|
A|--7-------2-------|
E|--5---------------|
“For the obvious instead of me…”

Chorus
e|-------------------------------------------|
B|-------------------------------------------|
G|------6-----------4-----------6------------|
D|9-----6-----7-----4-----6-----4-----7---9--|
A|9-----4-----7-----2-----6-----4-----7---9--|
E|7-----------5-----------4-----------5---7--|
“If we were a movie…”

Bridge: Strum pattern : VVVVVVVVVV

E|--------------|
B|--------------|
G|---------9----|
D|--9—-7---9—-9-|
A|--9—-7---7—-9-|
E|--7—-5------7-|
“Wish I could tell you there’s a twist, some hero in disguise…”

E|------------------|
B|------------------|
G|----------9--11---|
D|--9---7---9—-11---|
A|--9---7---7—-9----|
E|--7---5---x--x----|
“Like something more then in my mind…”

Comentarios del colaborador: esta 100 % correcta si necesitas ayuda con la tablatura opina !!! gracias .....

Calificar esta versión:
Aviso: Este fichero es trabajo propio de su transcriptor y representa su interpretación personal de la canción. El material contenido en esta página es para exclusivo uso privado, por lo que se prohibe su reproducción o retransmisión, así como su uso para fines comerciales.
Más versiones de If We Were A Movie, Hannah Montana/miley Cyrus
If We Were A Movie
acordes
If We Were A Movie (ver 2)
acordes
If We Were A Movie
tablatura
Descubre más canciones de Hannah Montana/miley Cyrus