Halo Theme, Halo (tablatura) (ver 4)

Autor: -LINK- | 40941 visualizaciones

------------------------------------------------
------------------------------------------------
------------------------------------------------
-----2-0-------0-2-3-2---2-0-----------0--------
-2-4-----4-------------3---------0-2-3---2-0----
------------------------------------------------

------------------------------12/1--------------
------------------------------------------------
-9-----11-12-14-12-11-12-9----------------------
------------------------------------------------
------------------------------------------------
------------------------------------------------

-------------------------------------------------------------
-------------------------------------------------------------
-------------------------------------------------------------
---------9--9---------11--11-------12--12-----14---14-12--11- x3
---------7--7---------9---9--------10--10-----12---12-10--9--
-0-0-0-0------0-0-0-0--------0-0-0--------0-0----------------


----------------------------------------------------
----------------------------------------------------
----------------------------------------------------
-9-9-9----11-11-11-----12-12-12-----14---14-12--11-- x2
-7-7-7----9--9--9------10-10-10-----12---12-10--9---
----------------------------------------------------
Calificar esta versión:
Aviso: Este fichero es trabajo propio de su transcriptor y representa su interpretación personal de la canción. El material contenido en esta página es para exclusivo uso privado, por lo que se prohibe su reproducción o retransmisión, así como su uso para fines comerciales.
Más versiones de Halo Theme, Halo
Halo Theme
tablatura
Halo Theme (ver 2)
tablatura
Halo Theme (ver 3)
tablatura
Halo Theme (ver 4)
tablatura
Descubre más canciones de Halo