Me Entrego A Tí, Ha.ash (tablatura)

Autor: Anónimo | 39788 visualizaciones



ha-ash - me entrego ati

intro :

e------------------------------------------
B------------12----------------------------
G-------9--------9-------------------------
D-----9-------------9/12---9/7---9~--------
A------------------------------------------
E------------------------------------------


e-----------------------------------------
B-------------12-------------9------------
G-------9----------9----11-------9~-------
D----9------------------------------------
A-----------------------------------------
E-----------------------------------------

e-----------------------------------------------
B------------12---------------------------------
G-------9--------9------------------------------
D-----9-------------9/12---9/7---9~-------------
A-------------------------------------9/11/9-/7-
E-----------------------------------------------


estos son en partes de toda la cancion ..
e-------------12------
B-------10------------
G---9-----------------
D---------------------
A---------------------
E---------------------


un saludo para mi grupo Nicotina de villa union, sinaloa
y para todos que se la pasen chido...
si tienen una duda no duden en sabermelo
staticx_jose1@msn.com





Calificar esta versión:
Aviso: Este fichero es trabajo propio de su transcriptor y representa su interpretación personal de la canción. El material contenido en esta página es para exclusivo uso privado, por lo que se prohibe su reproducción o retransmisión, así como su uso para fines comerciales.
Más versiones de Me Entrego A Tí, Ha.ash
Me Entrego A Tí
acordes
Me Entrego A Tí (ver 2)
acordes
Me Entrego A Tí
tablatura
Descubre más canciones de Ha.ash