Lo Que Yo Sé De Tí, Ha.ash (tablatura)

Autor: Anónimo | 18210 visualizaciones



aqui les dejo esta correción, gracias a Michelle que me hiso ver mi
error en el intro, creo que ya esta bien...
cuelquier duda o comentario, a mi correo:
gmwp_hp@hotmail.com


intro:

E|--------1-5--------------------1-5-------------------1-5---------
B|-------------8-6-8-6---------------8-6-8-6---------------8-6-8-6-
G|---2-3--------------------2-3-------------------2-3--------------
D|-----------------------------------------------------------------
A|-1---------------------1---------------------1-------------------
E|-----------------------------------------------------------------

E|---------1-5-----5-6---
B|--------------8--------
G|-----2-3---------------
D|-----------------------
A|--1--------------------
E|-----------------------

A#                    Gm
Puedo ver en tu mirada tantas huellas de dolor
            F                D#
que alguien antes de mi te dejó
A#                      Gm
aun es mucha la distancia nos separa tu temor
        F                D#
abre un poco de ti por favor

Cm              A#        Gm          F
no encuentro caricia para hacerte sentir
Cm                    A#         F
que aquí en mis brazos puedes vivir

Coro:

      A#       Gm            D#
si pudieras saber, lo que yo se de ti
                 D#m           F
sabrías que tu estas mejor aquí
      A#        Gm             D#
si pudieras sentir, lo que siento por ti
     D#m                       A#
sufrirías por que yo no soy feliz

(intro)

E|---------1-5--------------
B|--------------8-6-8-6-----
G|-----2-3------------------
D|--------------------------
A|--1-----------------------
E|--------------------------

E|---------1-5-----5-6---
B|--------------8--------
G|-----2-3---------------
D|-----------------------
A|--1--------------------
E|-----------------------



A#                        Gm
tal vez deba darte tiempo, esperar ese momento
         F                     D#
en que al fin nos coincida el amor

Cm              A#        Gm          F
no encuentro caricia para hacerte sentir
Cm                      A#       F
que aquí en mis brazos puedes vivir

Coro:

      A#       Gm            D#
si pudieras saber, lo que yo se de ti
                 D#m           F
sabrías que tu estas mejor aquí
      A#        Gm             D#
si pudieras sentir, lo que siento por ti
     D#m                        F
sufrirías por que yo no soy feliz

F#               C#5             G#        A#
aunque intentes ocultarlo, no lo sabes fingir
B               F#         G#
tus besos no me pueden mentir

(coro)

      C#      A#m            F#
si pudieras saber, lo que yo se de ti
                F#m          G#
sabrías que tu estas mejor aquí
      C#        A#m             F#
si pudieras sentir, lo que siento por ti
     F#m                        C# - A#m - F#
sufrirías por que yo no soy feliz.......Sin ti
     G#     C# - A#m - F# - G# - C#
oohh no no





Calificar esta versión:
Aviso: Este fichero es trabajo propio de su transcriptor y representa su interpretación personal de la canción. El material contenido en esta página es para exclusivo uso privado, por lo que se prohibe su reproducción o retransmisión, así como su uso para fines comerciales.
Más versiones de Lo Que Yo Sé De Tí, Ha.ash
Lo Que Yo Sé De Tí
acordes
Lo Que Yo Sé De Tí (ver 2)
acordes
Lo Que Yo Sé De Tí
tablatura
Descubre más canciones de Ha.ash