¿qué Hago Yo?, Ha Hash (tablatura)

Autor: aori_moni | 33199 visualizaciones



Intro:

Gutarra 1                              
e---------0----------------0------ 
B--------3--3------------3---3----
G------0------0--------0-------0--
D----4---------------4------------
A------------------3--------------
E-0-------------------------------

e---------0-----------------0-----
B-------3---3-------------3---3---
G-----0-------0---------2-------2-
D---4-----------------4-----------
A-------------------5-------------
E-3-------------------------------


Guitarra 2(rekinto)
e-12----10----------------12------10--12------8/----
B----10----12--7--8-------12--12--10--12--10--9/7---
G-------------------7---------12----------10----7---


verso:

(a)
e--------------------------------------------------------
B-------3--------------3-------------3--------------3----
G-----0---0----------0---3---------0---0----------0---0--
D---4--------------4-------------4--------------4--------   (x2)
A-2--------------3----------------------------5----------
E------------------------------3-------------------------

(b)
e-----------------------------------
B-------3-----3-----------3-----3--- 
G-----0---0-------------0---0------- 
D---4-------4---------4-------4----- 
A-2-----------------3--------------- 
E----------------------------------- 

e-------------------------------------
B-------3------3------------3-------3-
G-----0---0---------------0---2-------
D---4-------4-----------4--------4----
A--------------------5----------------
E-3-----------------------------------

(c)
e--------------------------------- 
B------3-----2----------3-----3--- 
G----0---0------------0---0-------
D---4------4--------2-------2----- 
A-2------------------------------- 
E-----------------0---------------

e--------------------------------0----
B-------1------1------------3-------3-
G-----0---0-------------------2-------
D---2--------2-----------4------------
A-0--------------------5--------------
E--------------------2----------------






Esta parte la tokan en la vandolina y va debajo de el coro, 
aki sta el arreglo para la lira:
                     1er final                                      
                                                                     
e---10----10--   ----10-----10- ----10-------10--
B-12---10-----   ----------- --------------------
G-------------   -12-----12---- -12------12------

2do final
e---10----10----------10--
B-12---10----------10-----
G-------------12----------

Coro:
e-------3-------3---------3--------3-----
B-----3---3---3---------3---3---3-------- 
G---0-------0---------0-------0----------
D---------------------------------------- 
A----------------------------------------
E-3-------------------0------------------

e-------3-------3-----------0--------0-
B-----3---3---3-----------3---3----3---
G---0-------0-----------2--------2-----
D---------------------0----------------
A-3------------------------------------
E--------------------------------------


Intro:

Gutarra 1                              
e---------0----------------0------ 
B--------3--3------------3---3----
G------0------0--------0-------0--
D----4---------------4------------
A------------------3--------------
E-0-------------------------------

e---------0-----------------0-----
B-------3---3-------------3---3---
G-----0-------0---------2-------2-
D---4-----------------4-----------
A-------------------5-------------
E-3-------------------------------

Guitarra 2(rekinto)
e-12----10----------------12------10--12------8/----
B----10----12--7--8-------12--12--10--12--10--9/7---
G-------------------7---------12----------10----7---

(b)
e-----------------------------------
B-------3-----3-----------3-----3--- 
G-----0---0-------------0---0------- 
D---4-------4---------4-------4----- 
A-2-----------------3--------------- 
E----------------------------------- 

e-------------------------------------
B-------3------3------------3-------3-
G-----0---0---------------0---2-------
D---4-------4-----------4--------4----
A--------------------5----------------
E-3-----------------------------------


Gutarra 1                              
e---------0----------------0------ 
B--------3--3------------3---3----
G------0------0--------0-------0--
D----4---------------4------------
A------------------3--------------
E-0-------------------------------



e---------0-----------------0-----
B-------3---3-------------3---3---
G-----0-------0---------2-------2-
D---4-----------------4-----------
A-------------------5-------------
E-3-------------------------------

Después d cada acorde va esta parte:
e-------0---
B-----3---3-
G---2-------
D-----------
A-5---------
E-----------

Coro:
                  1er final 
e---10----10--   ----10-----10- ----10-------10--
B-12---10-----   ----------- --------------------
G-------------   -12-----12---- -12------12------
2do final
e---10----10----------10--
B-12---10----------10-----
G-------------12----------


e-------3-------3---------3--------3-----
B-----3---3---3---------3---3---3-------- 
G---0-------0---------0-------0----------
D---------------------------------------- 
A----------------------------------------
E-3-------------------0------------------

e-------3-------3-----------0--------0-
B-----3---3---3-----------3---3----3---
G---0-------0-----------2--------2-----
D---------------------0----------------
A-3------------------------------------
E--------------------------------------

Después va el intro pro sin el
Rekinto, va dos veces y en la segunda
Vez después de cada acorde se toka de la 4ta a la 1er cuerda.
e---------0----------------0------ 
B--------3--3------------3---3----
G------0------0--------0-------0--
D----4---------------4------------
A------------------3--------------
E-0-------------------------------

e---------0-----------------0-----
B-------3---3-------------3---3---
G-----0-------0---------2-------2-
D---4-----------------4-----------
A-------------------5-------------
E-3-------------------------------

Coro:
e-------3-------3---------3--------3-----
B-----3---3---3---------3---3---3-------- 
G---0-------0---------0-------0----------
D---------------------------------------- 
A----------------------------------------
E-3-------------------0------------------

e-------3-------3-----------0--------0-
B-----3---3---3-----------3---3----3---
G---0-------0-----------2--------2-----
D---------------------0----------------
A-3------------------------------------
E--------------------------------------

Para terminar se tokan los dos primeros 
Acordes del intro y son

E-C-E





Comentarios del colaborador: bueno ps les dejo sta cancion para q la cheken, no fue facil d sakar pro aki sta asi q disfrutenla cuando la token y ps ensayenla si kieren q les salga =. echenle ganas sakenla pacientes y ps chekenla kn la del disco y van a ver q suena =. Dejo esta rola pa q se entretengan Un rato y pues echenle ganas. Girlpower!!

Calificar esta versión:
Aviso: Este fichero es trabajo propio de su transcriptor y representa su interpretación personal de la canción. El material contenido en esta página es para exclusivo uso privado, por lo que se prohibe su reproducción o retransmisión, así como su uso para fines comerciales.
Más versiones de ¿qué Hago Yo?, Ha Hash
¿que Hago Yo?
acordes
¿que Hago Yo? (ver 2)
acordes
¿qué Hago Yo?
tablatura
Descubre más canciones de Ha Hash