Uno Entre Mil, Gustavo Cerati (bajo)

Autor: Anónimo | 36340 visualizaciones

intro
G)--------------------------------x2
D)--------------------------------
A)0-7-5----------0-7-5------------
E)------6-0--22--------6-5--2-3-5-

verso1:

G)--------------------------------x4
D)--------------------------------
A)0-7-5----------0-7-5------------
E)------6-0--22--------6-5--2-3-5-

G)------------------------------------
D)----------------5-3-----------------
A)3-3-3-3-5-5-5-5-----3-3-3-3-5-5-5-5-
E)------------------------------------

pre estrofa
G)---------------------------------------------------------------
D)---------------------------------------------------------------
A)0-7-5----------0-7-5------------0-7-5---------0-7-5---------13-
E)------6-0--22--------6-5--2-3-5-------6-0-22--------6--12-12---

verso 2;

G)---------------------------------------------------------------x2
D)---------------------------------------------------------------
A)0-7-5----------0-7-5------------0-7-5---------0-7-5---------13-
E)------6-0--22--------6-5--2-3-5-------6-0-22--------6--12-12---

verso3:verso2x1

solo1:

G)----------------------
D)----------------------
A)9-7--6-5--99-77-66-55-
E)----------------------

coro:

G)----------------------------
D)----------------------------
A)3-3-3--5-5-3-5--9-9-9-7-7-7-
E)----------------------------

G)-------------x3
D)-------------
A)9-9-9--7-7-7-
E)-------------

solo2

G)---------------------
D)---------------------
A)99-77-66-55-7-9-79-9-
E)---------------------

coro x1

final:

G)-----------------------------------x8
D)----------------------------5-3----
A)3-3-3-3-3-3-3-3-5-5-5-5-5-5------5-
E)-----------------------------------
Calificar esta versión:
Aviso: Este fichero es trabajo propio de su transcriptor y representa su interpretación personal de la canción. El material contenido en esta página es para exclusivo uso privado, por lo que se prohibe su reproducción o retransmisión, así como su uso para fines comerciales.
Más versiones de Uno Entre Mil, Gustavo Cerati
Uno Entre Mil
acordes
Uno Entre Mil (ver 2)
acordes
Uno Entre Mil
bajo
Descubre más canciones de Gustavo Cerati