Traeme La Noche, Gustavo Cerati (tablatura)

Autor: Anónimo | 32598 visualizaciones

Intro y estrofas

E----------0-------0-----------0-----0----------0------0---------------
B--------7-------7-------7---5-----5-----5----4-----4------4-----------
G----------------------------------------------------------------------
D-----7-------7-------7-----6-----6-----6----4-----4------4------------
A----------------------------------------------------------------------
E----------------------------------------------------------------------


E---------0-------0------------0-----0-----------0-------0-------0-----
B-------7-------7-------7----2-----2-----2-----9-------9-------9-------
G----------------------------------------------------------------------
D----7-------7-------7-----2-----2-----2----9-------9-------9----------
A----------------------------------------------------------------------
E----------------------------------------------------------------------


E---------0-------0-----------0-----0----------------------------------
B-------7-------7-------7---5-----5-----5------------------------------
G----------------------------------------------------------------------
D----7-------7-------7-----6----6-----6--------------------------------
A----------------------------------------------------------------------
E----------------------------------------------------------------------


Esto se toca bastante rápido y procurando hacer los combios con slides.

El coro va así:

E	  F#	F#m
Tráeme la noche
		  C#m		 B
no puedo estar despierto más sin verla.
E	  F#	F#m
Tráeme la noche
		  C#m		 B
no puedo estar despierto más sin verla.

El outro va así:

E----------0-------0-----------0-----0----------0------0---------------
B-------10------10------10---8-----8-----8----7-----7------7-----------
G----------------------------------------------------------------------
D----10------10------10----9-----9-----9----7-----7------7-------------
A----------------------------------------------------------------------
E----------------------------------------------------------------------


E---------0-------0------------0-----0-----------0-------0-------0-----
B------10------10------10----5-----5-----5----12------12------12-------
G----------------------------------------------------------------------
D---10------10------10-----5-----5-----5---12------12------12----------
A----------------------------------------------------------------------
E----------------------------------------------------------------------


E---------0-------0-----------0-----0----------------------------------
B------10------10------10---8-----8-----8------------------------------
G----------------------------------------------------------------------
D---10------10------10-----9----9-----9--------------------------------
A----------------------------------------------------------------------
E----------------------------------------------------------------------

Lo tocas 3 veces y luego fade away. Es todo, disfrútala!

Fuente original: LaCuerda
Colaborador original: Luis Azeem [luis_azeem@excite.com]
Calificar esta versión:
Aviso: Este fichero es trabajo propio de su transcriptor y representa su interpretación personal de la canción. El material contenido en esta página es para exclusivo uso privado, por lo que se prohibe su reproducción o retransmisión, así como su uso para fines comerciales.
Más versiones de Traeme La Noche, Gustavo Cerati
Traeme La Noche
acordes
Traeme La Noche (ver 2)
acordes
Traeme La Noche
tablatura
Descubre más canciones de Gustavo Cerati