Tabu, Gustavo Cerati (tablatura)

Autor: Anónimo | 17460 visualizaciones

No tengo mi guitarra conmigo pero aqui esta de memoria 
el solo de Tabu.

e|------------------------------------------------|
B|--------------------------8---------------------|
G|---9~9~9~9~---------(*)/9---9-------------------|

e|--------------------------------------------------|
B|---9~~9~99-9-9~-10--10-10----108~~~~-------------|
G|--------------------------------------------------|
 
e|------------------------------------------------------------------| 
B|----------------------------------------------------------------9~| 
G|-10p8------10p8------10p8------10p8------10p8------10p8------10---| 
D|------11p8------11p8------11p8------11p8------11p8------11p8------| 

e|-------------------------9-8p6-----------.....
B|---9-8p6---9-8p6---9-8p6--------9p6------.....
G|-------------------------------------9p6-.....
                                         (el resto es improvisacion)
 sigue: Por Tiiiii!
 
 [~]= vibrato
 [p]= pull-off
 [/]= slide up (resbalo hacia arriba)
 []= slide down (resbalo hacia abajo)
 (*)= se escucha la cancion para determinar de donde se empieza el  
      resbalo.

Fuente original: LaCuerda
Colaborador original: Jorge [guerra14@hotmail.com]
Calificar esta versión:
Aviso: Este fichero es trabajo propio de su transcriptor y representa su interpretación personal de la canción. El material contenido en esta página es para exclusivo uso privado, por lo que se prohibe su reproducción o retransmisión, así como su uso para fines comerciales.
Más versiones de Tabu, Gustavo Cerati
Tabu
acordes
Tabu (ver 2)
acordes
Tabu
tablatura
Descubre más canciones de Gustavo Cerati