Sudestada, Gustavo Cerati (tablatura)

Autor: Anónimo | 24271 visualizaciones

INTRO: G (toda la intro)

E---------------------------------------------
A---------------------------------------------
D---------------------------------------------
G---------------------------------------------
B-3----3--5----------3--5-------3----3--5-----
e---5-------1-----5--------1------5--------1--


Riff 1 (0:20)

E-------------------
A-------------------
D-------------------
G-------------------
B---0h-1-p0---------
e-------------------

Riff 2  (3:17)

E--------------------------------------------------------------------------
A--------------------------------------------------------------------------
D-------------------------------------------------------12h14--/--12-------
G--------------------------------------------14h16p14----------------------
B---------------------------------13h15p13---------------------------------
e---12h13---12h13---12h13-/-15---------------------------------------------

Riff 3  (3:28)

E------------------------------------------
A------------------------------------------
D------------------------------------------
G------------------------------------------
B------------------------------------------
e---(17)/(15)---(17)/(15)---(17)/(15)------

VERSO 1:
  Am7    C7
A ver, A ver
      G
Si aclara
  Am7     C7
Hable de vos
        G
De mis ansias
Am7               C7         G
   Del día que nació, en tu boca
Am7               C7          G
   Del nuevo temporal, que estalla

CORO (x2):
F - Am (F es el primer acorde que suena, se pasa rápidamente al otro)
F - C
G

VERSO 2:
 Am7    C7
Afuera mis
    G
Entrañas
 Am7     C7
Adentro sigue
     G
En calma
Am7                 C7     
   Trataba de explicar,
G                        Em
   Que ya no hay vuelta atrás

 Am7     C7       G
Hablé, hablé, de todo

CORO (x2)

INSTRUMENTAL:
Am7 - G (x4)

CORO (x4)

FINAL: G (hasta que termina) 
 
Outro- VA  CON EL INTRO  

SALUDOS  A TODOS MIS AMIGOS DE LA PREPA NORTE  Y AL GRUPO 9 
DE SEGUNDO, ESTA CANCIÓN SE LA DEDICO EN ESPECIAL  A SANDRA ITZEL

Fuente original: LaCuerda
Colaborador original: Jesus Alejandro Pedraza Vega [delpiero511@hotmail.com]
Calificar esta versión:
Aviso: Este fichero es trabajo propio de su transcriptor y representa su interpretación personal de la canción. El material contenido en esta página es para exclusivo uso privado, por lo que se prohibe su reproducción o retransmisión, así como su uso para fines comerciales.
Más versiones de Sudestada, Gustavo Cerati
Sudestada
acordes
Sudestada
tablatura
Descubre más canciones de Gustavo Cerati