Cosas Imposibles, Gustavo Cerati (acordes)

Autor: Anónimo | 24320 visualizaciones

acsosmdem
 Artista: Gustavo Cerati
Tema: Cosas imposibles
Disco: Siempre es hoy
Tabeado por: Cristóbal Korenblit
Fecha: 15/02/2003
Mail:Bollak@msn.com

Esta canción ya ha sido transcrita por otras personas pero
encontré que habian errores tanto en la lírica como en los
acordes usados. Asi es como yo toco la canción y creo que
es la versión más fiel de esta.

Este es el Riff que sigue todo el verso de la cancion, con excepción del estribillo
o coro
E-----------------------------------------------------
B-----------------------------------------------------
G----------------------------------------------------
D-22222--000--22222--000--22222--000-2-----4-----4---
A-22222--000--22222--000--22222--000-2--2----2------0
E-----------------------------------------------------

Esto vendria siendo algo como:

E-------------------------------------------------------------
B-------------------------------------------------------------
G-------------------------------------------------------------
D-22222--000----22222---000-----22222--000---2------4-----4---
A-22222--000----22222---000-----22222--000---2---2----2------0
E-------------------------------------------------------------
  Si un amor    cayó del cielo  no pregunto más


Si un amor cayó del cielo
No pregunto más
En mis sueños nunca pierdo
La oportunidad
Ah ah ah ah ah

Aunque a veces se equivoquen
no confundo más
voy a hacer que mis cenizas
vuelvan al papel
Ah ah ah ah ah 
ah ah ah ah ah 

C#m              D
     Siempre es hoy
                 C#m
Ya es parte de mi ser
            D
Siempre es hoy
                   C#m
Lo claro entre los dos
            D
Siempre es hoy
                C#m
sos parte de mi ser
         D
Quiero hacer

cosas imposibles
                  
cosas imposibles

[Luego sigue lo siguiente]

E-----------------------------------------------------
B--------222---------222---------222---4444444--------
G--------222---------222---------222---4444444--------
D-22222--000--22222--000--22222--000---4444444--------
A-22222--000--22222--000--22222--000---2222222--------
E-00000-------00000-------00000-----------------------

E-----------------------------------------------------
B--------222---------222---------222---4444444--------
G--------222---------222---------222---4444444--------
D-22222--000--22222--000--22222--000---4444444--------
A-22222--000--22222--000--22222--000---2222222--------
E-00000-------00000-------00000-----------------------
  Ah           ah          ah          ah


Mutación del porvenir 
es eternidad
No me hablen de esperanzas vagas
persigo realidad
Ah ah ah ah ah 
ah ah ah ah ah 


C#m              D
     Siempre es hoy
                 C#m
Ya es parte de mi ser
            D
Siempre es hoy
                   C#m
Lo claro entre los dos
            D
Siempre es hoy
                C#m
sos parte de mi ser
         D
Quiero hacer

cosas imposibles
                  
cosas imposibles


[Despues pueden seguir con un Em y una A, pero ya la cancion esta casi acabada]

Acordes

C#m:     D:
E------  E------
B---5--  B---7--
G---6--  G---7--
D---6-   D---7--
A---4--  A---5--
E------  E------


Em:      A:
E------  E------
B-----   B---2--
G------  G---2--
D--2---  D---2--
A--2---  A------
E--0---  E------

Por si acaso:
A=la
B=si
c=do
D=re
E=mi
F=fa
G=sol 

Fuente original: LaCuerda
Colaborador original: Cristóbal Korenblit [bollak@msn.com]
Calificar esta versión:
Aviso: Este fichero es trabajo propio de su transcriptor y representa su interpretación personal de la canción. El material contenido en esta página es para exclusivo uso privado, por lo que se prohibe su reproducción o retransmisión, así como su uso para fines comerciales.
Más versiones de Cosas Imposibles, Gustavo Cerati
Cosas Imposibles
acordes
Cosas Imposibles (ver 2)
acordes
Descubre más canciones de Gustavo Cerati