Convoy, Gustavo Cerati (acordes)

Autor: Gonzaa98 | 35112 visualizaciones

asosambmcdmfg
Intro:

G              Dm          F                  C

1---------10----------13----------10----------------10
2-----8-----------10----------10-----10---------8------8
3---7---7------10---10-----10---10-----10-----9---9------9


Te encontré en un tren
dejando atrás toda la locura
Nos miramos bien
buscando nuestro punto de fuga


Arpegio 2º
   G           Am        F                   C

1---------10----------8----------10----------------10
2-----8----------10---------10------10---------8------8
3---7---7------9---9-----10---10------10-----9---9------9

Con tantas ganas de explorarnos
Todo salió como lo planeamos

Arpegio 3º
    G          Bm         F                  C

1---------10----------10----------10----------------10
2-----8----------12---------10------10---------8------8
3---7---7------11--11-----10--10------10-----9---9------9

Se soltó el vagón
Y volamos al espacio exterior



  Dm          A#
Proxima estación
           Dm         G  A#
mucho mas allá del Sol 
       Dm       A#
convoy espacial
              Dm          G   C  G
que tan lejos nos llevará.


[Intro]
Oìmos la galaxia explotar
Y cabalgamos otros planetas
Dormimos en las nubes de gas
Y en playas de relojes de arena



Arpegio 2º
Y cada noche una nueva luna
hicimos el amor en algunas

Arpegio 3º
Cuerpos a contraluz
guiados por la cruz del Sur



Bm         F
Dentro de un volcán
             Bm           G
ardimos de pasión mineral
           Bm           F
Nadie supo que nos pasó
                    C        A#
y ahora somos polvo cósmico.
Calificar esta versión:
Aviso: Este fichero es trabajo propio de su transcriptor y representa su interpretación personal de la canción. El material contenido en esta página es para exclusivo uso privado, por lo que se prohibe su reproducción o retransmisión, así como su uso para fines comerciales.
Más versiones de Convoy, Gustavo Cerati
Convoy
acordes
Convoy
tablatura
Descubre más canciones de Gustavo Cerati