Amor Amarillo, Gustavo Cerati (bajo)

Autor: Anónimo | 31384 visualizaciones

ok  aqui va:

intro:

G-0-0-0-0------------------------5-7-7-7-7-7-7-2
D--------22222---4-4-4-2-5------2---------------
A--------------5------------2-------------------
E--------------3--------------5-----------------

verse 1(tocalo con  distorsion media)
G-7-8-9--7-8-9-------------55--55---22---33-----
D--------------2----2----2---2----2----2----5---
A---------------0-----0-------------------------
E-----------------1-----1-1-------------------2-

verse 2(con slap y pop)

G--0-0----00---0-0--00---0--0--00--0-0----7-0-1-
D------5-----5-----5---5---5--2---------5-------
A-----------------------------------------------
E-------0-----------------------------1---------

outro :
G-5-5--8------8--------5-----3-------3---00--1--
D----6----2-2------2--------2-----2-------------
A---------------2----2--------------2--2----6-7-
E----------------3-------1----1----------------5



ESO  ES TODO AMIGOS  LES GARANTIZO Q  ESTA LINEA DE BAJO ES 100 

Fuente original: LaCuerda
Colaborador original: cheli [cheligay@hotmail.com]
Calificar esta versión:
Aviso: Este fichero es trabajo propio de su transcriptor y representa su interpretación personal de la canción. El material contenido en esta página es para exclusivo uso privado, por lo que se prohibe su reproducción o retransmisión, así como su uso para fines comerciales.
Más versiones de Amor Amarillo, Gustavo Cerati
Amor Amarillo
acordes
Amor Amarillo
tablatura
Amor Amarillo
bajo
Descubre más canciones de Gustavo Cerati