Adios, Gustavo Cerati (tablatura)

Autor: rub satriani | 37129 visualizaciones



weno ps solo djo l intro d sta rola ta bn xida 




 RIFF
E |---------|----------0-|------------|-2--3--2----|------------|
B |---------|------------|-2--0-------|----------3-|------------
G |---------|-------0----|-------2----|------------|-------4----|
D |---------|----2-------|----------0-|------------|-------5----|
A |---------|------------|------------|------------|-------5----|
E |-------2-|-0----------|------------|------------|-3-----3----|


E |------------|------------|
B |------------|------------|
G |-------6----|-4----------|
D |-------7----|-5----------|
A |-------7----|-5----------|
E |-------5----|-3--------2-|





Calificar esta versión:
Aviso: Este fichero es trabajo propio de su transcriptor y representa su interpretación personal de la canción. El material contenido en esta página es para exclusivo uso privado, por lo que se prohibe su reproducción o retransmisión, así como su uso para fines comerciales.
Más versiones de Adios, Gustavo Cerati
Adios
acordes
Adios
tablatura
Adios
bajo
Descubre más canciones de Gustavo Cerati