A Merced, Gustavo Cerati (tablatura)

Autor: Anónimo | 35235 visualizaciones

INTRO
 D-G-D-G-D-G

  EY  EY EY A  MERCED MI AMOR ES REAL
 D        G          D          G
|---------|---------|----------|---------|
|---------|---------|----------|---------|
|---------|---------|----------|---------|
|-4/7-4--0|-0--9--0-|-0---2---4|--2-4----|
|---------|---------|----------|---------|
|---------|---------|----------|---------|

 ME VUELVO A QUEDAR A MERCED
 Bm           E7           Asus4      A7
|-------------|----------|----------|---------|
|-------------|----------|----------|---------|
|-------------|---4------|----------|---------|
|-------------|-----0--4-|2---------|---------|
|-4-5---4--2-0|----------|----------|---------|
|-------------|----------|----------|---------|

  EY  EY EY A  MERCED HISTORIAS DE SAL
 D        G          D          G
|---------|---------|----------|---------|
|---------|---------|----------|---------|
|---------|---------|----------|---------|
|-4/7-4--0|-0--9--0-|-0---2---4|-2-4-----|
|---------|---------|----------|---------|
|---------|---------|----------|---------|

 ME VUELVO A  DEJAR A MERCED
 Bm           E7           Asus4      A7
|-------------|----------|----------|---------|
|-------------|----------|----------|---------|
|-------------|---4------|----------|---------|
|-------------|-----0--4-|2---------|---------|
|-4-5---4--2-0|----------|----------|---------|
|-------------|----------|----------|---------|


 TOMAR LA DOSIS      Y LEVITAR     ATADO A TU BELLEZA INCONSCIENTE
D7          G7       D7     G7      D7           G7             D7     G7
|----------|---------|-------------|------------|--------------|------|
|----------|---------|-------------|------------|--------------|------|
|-0-2/4-0-2/2--0-----|4-0----0--0-2|4-0-3/4--0/4/4-0-9--54----|0---|
|----------|---------|----3--------|------------|--------------|------|
|----------|---------|-------------|------------|--------------|------|
|----------|---------|-------------|------------|--------------|------|

 QUE MECE MI ESPIRITU  Y CUELGA.
 E                 
|-----------------------------|
|-----------------------------|
|2---2----4-----2--------4---7|
|-------5---------5/2--5------|
|-----------------------------|
|-----------------------------|
 
 D      G        D G 
 EY EY EY A MERCED
 D            G
 TE ESCUCHO SOÑAR
 Bm         E7            D
 ME VUELVO A QUEDAR A MERCED.
 G-D-G-D-G-D-
 G   Bm
 CASI QUIERO QUE TE DESPIERTES
        E7
 Y ES PORQUE
 Asus4        A7
 PODRIAS SONREIR DE VERME FLOTAR...
 
 D      G        D G
 EY EY EY A MERCED           
 D           G               |
 MI AMOR ES REAL             | X3
 Bm         E7            D  |
 ME VUELVO A QUEDAR A MERCED./
 

  D         G         Bm        E7       A7       Asus4    D7      G7
__0___    ______     ______   0_____   _0__0_0   _0_0_0  __0___  __OOO_
||||||  3 000000   2 |00000   |||0||   |||||||   ||||||  ||||0|  |||||0
|||0|0    |||0||     ||||0|   |O||||   ||0||0|   ||0|||  |||0|0  |0||||
||||0|    |00|||     ||00||   ||||0|   |||||||   ||||0|  ||||||  0|||||
EADGBe    EADGBe     EADGBe   EADGBe   EADGBe    EADGBe  EADGBe  ESDGBe

Fuente original: LaCuerda
Colaborador original: loscra [los_acr@atame.org]
Calificar esta versión:
Aviso: Este fichero es trabajo propio de su transcriptor y representa su interpretación personal de la canción. El material contenido en esta página es para exclusivo uso privado, por lo que se prohibe su reproducción o retransmisión, así como su uso para fines comerciales.
Más versiones de A Merced, Gustavo Cerati
A Merced
acordes
A Merced
tablatura
Descubre más canciones de Gustavo Cerati