Live And Let Die, Guns N´ Roses (acordes)

Autor: colonavaja | 20910 visualizaciones

sol/fa(kintakuerda,segundo traste/do/re/la.




sol-------    fa-------
     When you were young 

        do------ re-----------
And your heart was an open book 

sol-- fa--------------    do------
   You used to say live and let live 


You know you did /
You know you did /  re
You know you did /

sol------     fa----------  do----
    But if this ever changin' world 

do----------- la-----

In which we live in 

la------- re-------------
Makes you give in and cry 
---------------------------1
---3-5--6------------------2
---------------------------3
---------------------------4
---------------------------5
---------------------------6

Say live and let die 

------------------------------------1
------------------------------------2
--------------5--x-x-6-x-x-7--------3
-----5---x-x--5--x-x-5-x-x-6--------4
-----5---x-x--3--x-x-4-x-x-5--------5
-----3---x-x--3--x-x-3-x-x-4--------6

live and let die
----------------------------------1
----------------------------------2
--------------5--x-x-6-x-x--------3
-----5---x-x--5--x-x-5-x-x--------4
-----5---x-x--3--x-x-4-x-x--------5
-----3---x-x--3--x-x-3-x-x--------6

punteo slash
--------------------------------------1          )           
------------15------------------------2          )           
----12--14--15----7--9-10---5---3--0--3          )             
----12--14--15----7--9-10---5---3--0--4          )           
--------------------------------------5          )           
--------------------------------------6          )  x2       
                                                 )         
--------------------------------------1          )       
------------15------------------------2          )          
----12--14--15----7--9-10---5---3-----3          )      
----12--14--15----7--9-10---5---3-----4          )            
--------------------------------------5          )            
--------------------------------------6          )             


-------------------------------------------------------1
-------------------------------------------------------2
-------15---11---13----9----11--15---11--13--9--11-----3
-------------------------------------------------------4
-------13---9----11----7----9---13---9---11--7--9------5
-------------------------------------------------------6

--------------------------------------------------------------1
--------------------------------------------------------------2
15---11---13-------9-------10-----12-------9-------10----12---3
--------------------------------------------------------------4
13---9----11--------7------8-------10-------7-------8-----10--5
--------------------------------------------------------------6







What does it matter to ya

--------------------------------------------2-2-2-2-2------
--------------------------------------------3-3-3-3-3------
----5--x-x-5-x-5-x5x5-x5--------------------2-2-3-3-3------
----5--x-x-5-x-5-x5x5-x5---5x5x5x5x5x5------0-0-0-0-0------
----3--x-x-3-x-3-x3x3-x3---5x5x5x5x5x5---------------------
---------------------------3x3x3x3x3x3---------------------
               When ya got a job to do 
                                        Ya got to do it well 

----------------------------------1
----------------------------------2
---------9---10----------------------3
---------9---10----------------------4
---------7----8---------------------5
----------------------------------6
You got to give the other fella hell 
--------------------------------------1          )           
------------15------------------------2          )           
----12--14--15----7--9-10---5---3--0--3          )             
----12--14--15----7--9-10---5---3--0--4          )           
--------------------------------------5          )           
--------------------------------------6          )  x2       
                                                 )         
--------------------------------------1          )       
------------15------------------------2          )          
----12--14--15----7--9-10---5---3-----3          )      
----12--14--15----7--9-10---5---3-----4          )            
--------------------------------------5          )            
--------------------------------------6


---------10---12(full)-12--10-8-7-8-----------------1
10(full)----------------------------10(full)--------2
---------------------------------------------7------3
----------------------------------------------------4
----------------------------------------------------5
----------------------------------------------------6

sol-- fa--------------    do------
   You used to say live and let live 


You know you did /
You know you did /  re
You know you did /

sol------     fa----------  do----
    But if this ever changin' world 

do----------- la-----

In which we live in 

la------- re-------------
Makes you give in and cry 
---------------------------1
---3-5--6------------------2
---------------------------3
---------------------------4
---------------------------5
---------------------------6

Say live and let die 

------------------------------------1
------------------------------------2
--------------5--x-x-6-x-x-7--------3
-----5---x-x--5--x-x-5-x-x-6--------4
-----5---x-x--3--x-x-4-x-x-5--------5
-----3---x-x--3--x-x-3-x-x-4--------6

live and let die
----------------------------------1
----------------------------------2
--------------5--x-x-6-x-x--------3
-----5---x-x--5--x-x-5-x-x--------4
-----5---x-x--3--x-x-4-x-x--------5
-----3---x-x--3--x-x-3-x-x--------6

punteo slash
--------------------------------------1          )           
------------15------------------------2          )           
----12--14--15----7--9-10---5---3--0--3          )             
----12--14--15----7--9-10---5---3--0--4          )           
--------------------------------------5          )           
--------------------------------------6          )  x2       
                                                 )         
--------------------------------------1          )       
------------15------------------------2          )          
----12--14--15----7--9-10---5---3-----3          )      
----12--14--15----7--9-10---5---3-----4          )            
--------------------------------------5          )            
--------------------------------------6          )             
--------------------------------------1          )           
------------15------------------------2          )           
----12--14--15----7--9-10---5---3--0--3          )             
----12--14--15----7--9-10---5---3--0--4          )           
--------------------------------------5          )           
--------------------------------------6          )        
                                                 )         
--------------------------------------1          )       
------------15------------------------2          )          
----12--14--15----7--9-10---5---3-----3          )      
----12--14--15----7--9-10---5---3-----4          )            
--------------------------------------5          )            
--------------------------------------6          )             

espero que els sirva porque me costo mucho trabajo gracias por tu voto ante cualkier duda preguntame 
colo_17_22@hotmail.com


Comentarios del colaborador: guitar pro 5

Calificar esta versión:
Aviso: Este fichero es trabajo propio de su transcriptor y representa su interpretación personal de la canción. El material contenido en esta página es para exclusivo uso privado, por lo que se prohibe su reproducción o retransmisión, así como su uso para fines comerciales.
Más versiones de Live And Let Die, Guns N´ Roses
Live And Let Die
acordes
Live And Let Die (ver 2)
acordes
Live And Let Die (ver 3)
acordes
Live And Let Die (ver 4)
acordes
Live And Let Die (ver 5)
acordes
Live And Let Die
tablatura
Descubre más canciones de Guns N´ Roses