It´s So Easy, Guns N´ Roses (tablatura) (ver 2)

Autor: colonavaja | 21877 visualizaciones

afinacion; bajo un step(1 flat)

:duff toca el intro y cuando se agrega la otra guitarra comienza esta:

|-------------------------------|
|-12---<12>----12---12----------|
|-12---<12>----12-------<12>----|
|-12---<12>---------------------|
|------<12>---------------------|
|-------------------------------|

::Main riff::

|-----------0----0-0----|
|-----------0----0-0----|
|-3-3S2-0---------------|
|-3-3S2-0---------------|
|---------2-------------|
|---------0----0--------|


|-----------------------------|
|-----------------------------|
|-----------------------------|
|--------------------2--------|
|------------------2---1-0----|
|-5b6-5--3--0--3-4------------|

::verso::

Bb5    A5 G5   E  E5(2)                       Bb5
                  I see your sis - ter in her sun - day

A5    G5    (E)  E5
 Dress.          She's out to.......

:dura el coro tocado por slash:

|-5-5-3-5--6p5p3p0-0-0--<0>----|
|-5-5-3-5--6p5p3p0-0-0--<0>----|
|------------------------------|
|------------------------------|
|------------------------------|
|------------------------------|

:coro:
A5     G5  A5  Bb5         E          Esus#4 Esus4
               It's So     Eas    -   y,

p.m         slide
E      Esus#4    Esus4
Eas    -   y................


::bridge 1::

|--------------------------------------------------------------------|
|--------------------------------------------------------------------|
|---------------------------------------0-----0---0-----0-----0---0--|
|-----0-----0---0------0-----0---0----4-----4---------1-----1--------|
|---0-----0----------2-----2--------2-----2-----2---0-----0-----0----|
|-2-----2-----2----3-----3-----3-------------------------------------|



  PM|         PM----|     PM|     PM----|

|------------------------------------------------|
|------------------------------------------------|
|------------------------------------------------|
|------------------------------------------------|
|-----5-7-5-7---------5-7-----5-7---------5-7----|
|-0-0---------0-0-0-0-----0-0-----0-0-0-0--------|


  PM------|

|--------------------------|
|--------------------------|
|--------------------------|
|--------------------------|
|-----------7-7-7-5--------|
|-0-0-0-0-0---------7-5----|

:Pre solo verso:

|---------------0-0-------0----|
|---------------0-0-3-3S5-0----|
|-7-7-5-7-----------2-2S4------|
|-7-7-5-7-5-4-2----------------|
|-5-------5-4-2----------------|
|-------------0----------------|


:Solo:

|-------------------------------12---------------------------------------------|
|-17b19--17b19--17b19---15b16.5----15p-12-------------12-----------------------|
|---------------17b19---------------------14b15-12-14----12-----------12-14----|
|-----------------------------------------------------------14-14--14----------|
|------------------------------------------------------------------------------|
|------------------------------------------------------------------------------|


                               ~~

|-----------------------------------|
|-12----12----12-------12-----15----|
|----15----15----15-14----12--------|
|-----------------------------------|
|-----------------------------------|
|-----------------------------------|


                           ~~

|-------------------------------|
|-14b15-14b15-14----------15----|
|----------------12-------------|
|-------------------14-14-------|
|-------------------------------|
|-------------------------------|

:ultimo verso:

F#5        G5              B5                     A5
Come with_ me.   Don't ask__ me where__ cause' I don't know._

       F#5             G5                 B5
I'll__ try__ to__ please_ you.  I ain't got no money but it

A5
goes to show

rake           rake
|------15--12-------10----(10)~~~~(10)s----------0--|
|----"------------"-10fb--(10)----(10)s-2fb--(2)----|
|---"------------"----------------------------------|
|--"------------"-----------------------------------|
|---------------------------------------------------|
|---------------------------------------------------|

|---------------------------------------------------|
|--3p0----------------------------------------------|
|------2fbr(2)p0------------------------------------|
|----------------2--2~~(2)~~-2--5fbr----------------|
|---------------------------------------------------|
|-------------------------------------5-(5)slowfb---|

|---------------------------------------------------|
|---------------------------------------------------|
|---------------------------------------------------|
|---------------------------5hb---------------------|
|-----------------5hb--7--5-------7-7-(7)-7-7---5hb-|
|-3-(3)-5fb--3-0------------------------------7-----|

|---------------------------------------------------|
|---------------------------------------------------|
|------------------------7--9p7---7-(7)-9--9-----7hb|
|----7s8s7p5-7p5-----7s5--------9-------------9-----|
|-7--------------7-5--------------------------------|
|---------------------------------------------------|
pm                          .....       ......

|---------------------------------------------------|
|--------8hb----------12-15-------------------------|
|-9---9----------14fb-------14fbr-12--14fb---15--12-|
|---------------------------------------------------|
|---------------------------------------------------|
|---------------------------------------------------|

|--------------12-----------------------------------|
|-----------------15--14h15p14p12---14---12---------|
|-14fb(14)rp12------------------------------14p12---|
|---------------------------------------------------|
|---------------------------------------------------|
|---------------------------------------------------|

|---------------------------------------------------|
|---------------------------------------------------|
|-14-(14)fb--14fb----14--13h14p13------12-----------|
|-----------------14---------------14---------------|
|---------------------------------------------------|
|---------------------------------------------------|
p.m               ..

|---------------------------------------------------|
|-14hb(14)rp12----14--------------------------------|
|--------------14----12-----------------------------|
|-----------------------14-14s12-12s8-7-7s5--(5)----|
|---------------------------------------------------|
|---------------------------------------------------|

|---------------------------------------------------|
|---------------------------------------------------|
|---------------------------------------------------|
|--------------8--7--5------------------------------|
|-----------------------7---------------------------|
|--3s(17)s-----------------6--5--3hb--0----(0)------|

|---------------------------------------------------|
|---------------------------------------------------|
|-9-9----7-----9------------------------------------|
|-9-9----7-----9-----8--7--5------------------------|
|-7-7----5-----7--------------7---------------------|
|-----7-----0----0---------------6--5--3hb--0----(0)|
p.m  ..     ..   ..

|---------------------------------------------------|
|---------------------------------------------------|
|-9-9----7-----9------------------------------------|
|-9-9----7-----9-----8--7--5------------------------|
|-7-7----5-----7--------------7---------------------|
|-----7-----0----0---------------6--5--3hb--0----(0)|
p.m  ..     ..   ..
|---------------------------------------------------|
|---------------------------------------------------|
|-9-9----7-----9------------------------------------|
|-9-9----7-----9-----8--7--5----------------2----(2)|
|-7-7----5-----7--------------7-------------2----(2)|
|-----7-----0----0---------------6--5--3hb--0----(0)|
p.m  ..     ..   ..


y hay termina;)

Comentarios del colaborador: bueno me costo mucho hacerlo espero que les guste:)

Calificar esta versión:
Aviso: Este fichero es trabajo propio de su transcriptor y representa su interpretación personal de la canción. El material contenido en esta página es para exclusivo uso privado, por lo que se prohibe su reproducción o retransmisión, así como su uso para fines comerciales.
Más versiones de It´s So Easy, Guns N´ Roses
It´s So Easy
tablatura
It´s So Easy (ver 2)
tablatura
Descubre más canciones de Guns N´ Roses