Garden Of Eden, Guns N´ Roses (tablatura)

Autor: sflearsh | 29308 visualizaciones

Garden of eden
   

INTRO:
       hand slide       
e|--x-------------------------------------------------------5b6------------------|
B|--x-------------------------------------------------------5b6------------------|
G|--x----------------------------------------------------------------------------|
D|------x/--------------------------------------------------------------2---(2)--|
A|------x/------------------2--------5//------2--(2)-------------5/6---2---(2)--|
E|-----------------17/0-----0---0-0--3//---0--0--(0)--0----------3/4---0---(0)--|
                                * *

e|---------------------------------------------------------------------------------|
B|-------------------------2b3-----------------------------------------------------| 
G|---------------------0---2b3-------------------------------------2b3-------------|
D|---------5/6-----2---0---2b3----------2---------5//------2------2b3------2--(2)-|
A|---------5/6-----2--------------------2---------5//------2---------------2--(2)-|
E|-0-0-0---3/4--0--0------------3--3-0--0----0-0--3//---0--0---0--------3--0--(0)-|
   * * *                                                        *

                                    Riff 1 (Slash and Izzy together)
e|---------------------------------|-------------------------------------------------|
B|---------------------------------|-------------------------------------------------|
G|--------------------2b3----------|-------------------------------------------------|
D|------5------2------2b3-------2--|-(2)--------5//-----2---(2)-----7b8---5/6---2---|
A|------5------2----------------2--|-(2)--------5//-----2---(2)-----7b8---5/6---2---|
E|-0-0--3---0--0---0--------3---0--|-(0)---0-0--3//---0-0---(0)--0--5b6---3/4---0---|
                                           * *
                                        
Riff 1 (2 1/2 times)
You got a glass jawed tootache of a mental disease,
And they be runnin 'round back, see 'em line up on their knees,
'Cause the kiss ass sucophants throwin' penance at your feet.
When they got nowhere to go, watch 'em

Riff 2
  come in off the streets. While they're bangin' out front, inside they're
e|------------------------------------------------------------------------|
B|------------------------------------------------------------------------|
G|------------------------------------------------------------------------|
D|-(2)------7b8-----------------------------------------------------------|
A|-(2)------7b8-------------------------1h2-------------------------------|
E|-(0)--0---5b6---3--0--3--(3)---3---3-------3--3--(3)--------------------|


 slammin' to the crunch. Go on an throw me to the lions and the whole damn screamin' bunch
e|----------------------------------------------------------------------------------------|
B|----------------------------------------------------------------------------------------|
G|----------------------------------------------------------------------------------------|
D|----------------------------------------------------------------------------------------|
A|--3h4--3--1h2-------------------1h2---------------3h4--3--1/2---------------------------|
E|----------------3--(3)----3--3-------3--3---(3)-----------------3--(3)------------------|


 'Cause the pissed-off ripoffs 'r' ev'rywhere you turn
e|-----------------------------------------------------------|
B|-----------------------------------------------------------|
G|-----------------------------------------------------------|
D|-----------------------------------------------------------|
A|---------1h2--------------3h4-------------3h4--3--1/2------|
E|---3--3-------3--3--(3)-------3--3--(3)----------------3---|


                                                     Riff 3
  Tell me how a generation's ever s'posed to learn.  This fire is burnin' and it's 
e|--------------------------------------------------|------------------------------|
B|--------------------------------------------------|------------------------------|
G|--------------------------------------------------|------------------------------|
D|---------------------------------------------5-(5)|---3--------------------------|
A|---------------1h2--------------3h4--3--1/2-------|----------5--3--1--3//-------|
E|---(3)---3--3-------3--3--(3)---------------------|------------------------------|


  Out of control. It's not a problem you can stop.  It's rock n' roll.
e|----------------------------------------------------------------------------|
B|----------------------------------------------------------------------------|
G|----------------------------------------------------------------------------|
D|----------------------------------------------------------------------5--5--|
A|--(3)//---1----------------------5--3--1--3//--(3)//---1-----------5--5--|
E|--------------3--1--0--3//---1------------------------------3--1--2--3--3--|


Riff 4 (SLASH)
e|----------------------------------------------------------------------------|
B|----------------------------------------------------------------------------|
G|------------------------------------------------------------------------3---|
D|--3------5p3-----5--------3-----5p3-----5--------3-----5p3------5-------3---|
A|--3------5p3--------------3-----5p3--------------3-----5p3------------------|
E|-(3)--3-------3-----3--3-----3-------3-----3--3-----3--------3----3--3------|
        *       *  *  *  *     *       *  *  *  *     *        *  * * *         


e|-----------------------------------------------------------------------------|
B|-----------------------------------------------------------------------------|
G|-----------------------------------------------------------------------------|
D|---5p3-----5--------3-----5p3-----5--------3-----5p3------5--5--5--4---3--2--|
A|---5p3--------------3-----5p3--------------3-----5p3------5--5--5--4---3--2--|
E|--------3-----3--3-----3-------3-----3--3-----3-------3---3--3--3--2---1--0--|
          *  *  *  *     *       *  *  *  *     *       *          

Riff 1 (3 1/2)
I read it on a wall, it went straight to my head.
It said,  "Dance to the tension of a world on edge"
We got radical vi'lence, and who'll cast the first stone.And sexis used any

Riff 5
    way it can be.         Sometimes when I look out
e|------------------------------------------------------------|
B|------------------------------------------------------------|
G|-----------------------2----2-------------------------------|
D|------7b8---5/6--------2----2-------------(2)---(2)---2-----|
A|------7b8---5/6---0---(0)---0----3p0---0---3b4--(3)---0-----|
E|--0---5b6---3/4---------------------------------------------|


    It's  hard  to  see  the  day.               It's  a feelin' you can have it.
e|---------------------------------------------------------------------------------|
B|---------------------------------------------------------------------------------|
G|--------------------2------------------------2-----------5---2-----------5---2---|
D|---------2----(2)---2-------------2----(2)---2-----------5---2-----------5---2---|
A|-3p0--0--3b4--(3)---0----3p0--0---3b4--(3)---0---3p0--0--3---0---3p0--0--3---0---|
E|---------------------------------------------------------------------------------|


    It's  not  mine  to  take  away.
e|--------------------------------------------|
B|--------------------------------------------|
G|--------------------------------------------|
D|---------------7---6---5--------------------|
A|--3p0--0--0----------------3----------------|
E|-------------------------------0---1---2----|


Chorus
play G5 
Lost in the garden of Eden. Said we're lost in the garden of Eden
And there's no one's gonna believe this, but we're lost in the garden of Eden.

play Riff 3
This fire is burnin' and it's out of control.
It's not a problem you can stop.
IT'S ROCK N' ROLL


than again play G5


Riff 1 (3 1/2 times)
Looking through this point of view, there's no way I'm gonna fit in.
Don't ya tell me what my eyes see. Don`t ya tell me who to believe in.

Riff 2
I ain`t superstitious, but I know when something wrong.
I`ve been draggin` my heels witha bitch called Hope.
Let the undercurrent drag me along.


Chorus
play G5
Lost in the garden of Eden. Said we're lost in the garden of Eden
And there's no one's gonna believe this, but we're lost in the garden of Eden.


solo 1 (SLASH)
e|-------------------------------------------5-------5---------------------5--|
B|----------------------------------------------7h8-----8p7p5--8p7p5--7h8-----|
G|------------------5h6--------------5--7h8-----------------------------------|
D|--177--(7)--7--7-----5--7--(7)---------------------------------------------|
A|----------------------------------------------------------------------------|
E|----------------------------------------------------------------------------|


e|-----------------------------------------------12----------|
B|--8p7p5-----5-----------5--------10----10--10------13b14---|
G|--------7h8---8p7p5--7-----5--0----------------------------|
D|-----------------------------------------------------------|
A|-----------------------------------------------------------|
E|-----------------------------------------------------------|


e|------------------------------------------------------------------------------------|
B|--10--8-----------------------------------------------------------------------------|
G|--------9--7h8-9--7h8h9-7h8h9-7h8h9-7h8h9-7h8h9-7h8h9-7-9--5----(5)--16//--16///-|
D|------------------------------------------------------------------------------------|
A|------------------------------------------------------------------------------------|
E|------------------------------------------------------------------------------------|


e|--------------------14-----------------------------------------------------------|
B|-------14-17b19--17----15--------------------------------------------22----(22)--|
G|--(16)----------------------16---14----16----14----------------------------------|
D|------------------------------------16----16----16-------------------------------|
A|----------------------------------------------------15-1412---------------------|
E|---------------------------------------------------------------------------------|


e|----------------------------------------------------------------------------------15-------|
B|--19-22--19----22----19-22p19----19----18-19-17-------15-----15----------------------18b20-|
G|------------21----21----------21----21----------19-17----18-----18h19p18-17-14-16----------|
D|-------------------------------------------------------------------------------------------|
A|-------------------------------------------------------------------------------------------|
E|-------------------------------------------------------------------------------------------|


Riff 2
Organized  religions  make  a  mockery  of  humanity.
Our  goverments  are  dangerous  and  out  of  control.
The  garden  of  Eden  is  just  another  graveyard.
Said  if  they  had  someone  to  buy  it,
Said  I'm  sure they'd  sell  my  soul.

Riff 3
This  fire  is  burnin'  and  it's  out  control.
It's  not  problem  you  can  stop.
It's  ROCK n' Roll

than chorus + solo 2 (SLASH)
e|--------------------------------------------------------------------------------|
B|--------------------------------------------------------------------------------|
G|----x/x/-------15----------------3h4-------------5--6--5--3--4-/12--(12)--x-x--|
D|-------------------5--(5)---5--5-------5--5--(5)--------------------------------|
A|--------------------------------------------------------------------------------|
E|--------------------------------------------------------------------------------|


e|------------------------------------------------------------------------------|
B|--11h12-----------------------------------------------------------------------|
G|---------12--12--(12)---------------------------------------------------------|
D|-----------------------10--11--10--8--9-------------------8h9-----------------|
A|-----------------------------------------10--(10)---x--x-------10--10--(10)---|
E|------------------------------------------------------------------------------|


e|--------------------------------------------------------------------------------|
B|--------------------------------------------------------------------------------|
G|----------------------------------------15h16---------------17--18--17--15--16--|
D|--10--11--10--8--9--17--(17)----17--17---------17--17--(17)---------------------|
A|--------------------------------------------------------------------------------|
E|--------------------------------------------------------------------------------|


e|------------------------------------------------------------------|
B|--18b20--(18)---18-----------18-----------------------------------|
G|---------------------17b19-------17//---17----15----12-----10----|
D|------------------------------------------------------------------|
A|------------------------------------------------------------------|
E|------------------------------------------------------------------|

                                 ....It's ROCK N' ROLL.
e|------------------------------------------------------|
B|------------------------------------------------------|
G|------------------------------------------------------|
D|---10b12r10p8---10--(10)----8-------------------------|
A|---------------------------------10--8--8--10///----|
E|------------------------------------------------------|
                                              H


Calificar esta versión:
Aviso: Este fichero es trabajo propio de su transcriptor y representa su interpretación personal de la canción. El material contenido en esta página es para exclusivo uso privado, por lo que se prohibe su reproducción o retransmisión, así como su uso para fines comerciales.
Más versiones de Garden Of Eden, Guns N´ Roses
Garden Of Eden
acordes
Garden Of Eden
tablatura
Descubre más canciones de Guns N´ Roses