Estranged, Guns N´ Roses (acordes) (ver 2)

Autor: OldGuns | 17535 visualizaciones

a5ambbbb5cc5dd5dmeebff5f7gg-bg-fg5g7gmgm7
Gm7         C              Gm7         C
|--|----|------|--------|-----|----|------|--------|--------------------||
|--|----|------|--------|-----|----|------|--------|--------------------||
|--|----|------|--------|-----|----|------|--------|-----12b------------||
|--|----|------|--------|-----|----|------|--------|--------------------||
|--|-10-|-[10]-|-[10]s3-|--3--|-10-|-[10]-|-[10]s3-|-[3]----------------||
|--|----|------|--------|-----|----|------|--------|--------------------||



   G5                                 C5
|------------|-------13b----10------|---------------------13-----|---------------------|
|----11--15b-|----11------------13b-|-----13v--------13b-----13b-|--13v-------[13]\----|
|-12---------|-12-------------------|----------------------------|---------------------|
|------------|----------------------|----------------------------|---------------------|
|------------|----------------------|----------------------------|---------------------|
|------------|----------------------|----------------------------|---------------------|



   G5                                      C5
|-------------------|-------13b---10-----|----------------13----|
|-----11--15bv------|----11----------13b-|-----13v----13b----13b|
|--/12--------------|-12-----------------|----------------------|
|-------------------|--------------------|----------------------|
|-------------------|--------------------|----------------------|
|-------------------|--------------------|----------------------|



                            Bb5             C5                G5
|------------------------||----------13-----|-----------------|----------19v-----------------------|
|-13v---13b--13p11-------||-11v--13b----13b-|-13--------12b---|---12b-----------13p12----13b----12-|
|------------------12----||-----------------|-----------------|------------------------------------|
|------------------------||-----------------|-----------------|------------------------------------|
|------------------------||-----------------|-----------------|------------------------------------|
|------------------------||-----------------|-----------------|------------------------------------|



                         Bb5                C5             G5
|-------------13--------|----------------------|--------------|------|
|--11v----13b----13b----|-----13-----13--------|--------------|------|
|-----------------------|------------------14b-|--------------|------|
|-----------------------|----------------------|--------------|------|
|-----------------------|----------------------|--------------|------|
|-----------------------|----------------------|--------------|------|


                      Riff A 

   Eb5  F5              G5                   C5           Eb5   F5
|-----|---------------||----------------------|------------------------|
|-11v-|----[11]\s-----||----------13s15-[15]s-|-------13s15-[15]-13p12-|
|-----|---------------||-------12-------------|----12------------------|
|-----|---------------||----12----------------|-10---------------------|
|-----|---------------||-10-------------------|------------------------|
|-----|---------------||----------------------|------------------------|


 G5			              Eb5  F5     G5


|-----------------------|------------------------|-----------------------|
|-13p12------[15]-[15]s-|-------13s15-[15]-13p12-|-13p12--------15-[15]--|
|-------12--------------|----12------------------|-------12--------------|
|----------12-----------|-10---------------------|----------12-----------|
|-----------------------|------------------------|-----------------------|
|-----------------------|------------------------|-----------------------|


		[Fin del Riff A]

   Eb5 F5  G5     Eb5   F5      Gm   F      Eb     G
|-------|------|------------||----|------|------|------|---------15--17b-|
|-15s13-|-13b--|-11---11p10-||----|------|------|------|-----------------|
|-------|------|------------||-12-|-[12]-|-[12]-|-[12]-|-[12]------------|
|-------|------|------------||----|------|------|------|-----------------|
|-------|------|------------||----|------|------|------|-----------------|
|-------|------|------------||----|------|------|------|-----------------|



   F      Eb                           G5  F5           G5
|-[17]-|---------------------|----------|------------|-------------------|
|------|-s13--11-10---11br10s|8------8--|------------|-------------------|
|------|---------------------|----------|-10b---[10]-|-[10]--------------|
|------|---------------------|----------|------------|-------------------|
|------|---------------------|----------|------------|-------------------|
|------|---------------------|----------|------------|-------------------|


F5                                   G5
And what more could you ask from me?
F5
How could you say that I never need-
G5          Eb5                   D5
-ed you_    when you took everything
F5
said you took everything from me?

 w/Riff A 

   G5           C5  Eb5    F5  G5             C5   Eb5     F5 G5   Eb5 F5
|------------|--------------|--------------|---------------|----|--------|
|------------|--------------|--------------|---------------|----|--------|
|------------|--------------|--------------|---------------|----|--------|
|------------|----1-1-1-1-3-|--5-----------|-----1-1-1-1-3-|-5--|--[5]---|
|-----5--6-5-|-3------------|------5---6-5-|--3------------|----|--------|
|-3----------|--------------|--------------|---------------|----|--------|



   G5    Eb5   Gm    F      Eb     Gm                     F
|-----|-----||-----|------|------|------|-----15--15s17-|-18----18s20-|
|-----|-----||-----|------|------|------|---------------|-------------|
|-----|-----||-12--|-[12]-|-[12]-|-[12]-|-[12]----------|-------------|
|-[5]-|-[5]-||-----|------|------|------|---------------|-------------|
|-----|-----||-----|------|------|------|---------------|-------------|
|-----|-----||-----|------|------|------|---------------|-------------|



   Eb                     Gm     Gm7                C
|-[20]---18--17-18--15-|-15--||-[15]-----|-[15]--|-------------|--------||
|----------------------|-----||----------|-------|-------------|--------||
|----------------------|-----||----------|-------|-------------|----12b-||
|----------------------|-----||----------|-------|-------------|--------||
|----------------------|-----||-------10-|-[10]--|-[10]--10-s3-|-[3]----||
|----------------------|-----||----------|-------|-------------|--------||



   G5                                C5
|-------------|-------13b--10-----|---------------13----|
|----11--15b--|----11---------13b-|-13--[13]-13b-----13-|
|-12----------|-12----------------|---------------------|
|-------------|-------------------|---------------------|
|-------------|-------------------|---------------------|
|-------------|-------------------|---------------------|



                                    Bb5               C5
|-----------13------------------||-----------13----|---------------------|
|-13----13b-----13br[13]p11-----||-11---13b-----13-|-[13]---13---12b-----|
|----------------------------12-||-----------------|---------------------|
|-------------------------------||-----------------|---------------------|
|-------------------------------||-----------------|---------------------|
|-------------------------------||-----------------|---------------------|



   G5			      Bb5               C5
|----------|-----------------|------------13---|------------13--15-------|
|-[12]-----|-------13p12--12-|-11----13b----13-|--13---13b---------------|
|-------14b|-[14]------------|-----------------|-------------------------|
|----------|-----------------|-----------------|-------------------------|
|----------|-----------------|-----------------|-------------------------|
|----------|-----------------|-----------------|-------------------------|



   G5		       C5
|-[15]-|-[15]---13p12-|-----|------||
|------|--------------|-13--|--13--||
|------|--------------|-----|------||
|------|--------------|-----|------||
|------|--------------|-----|------||
|------|--------------|-----|------||



 [Bajo y piano]

|------------------------------------------------------------------------|
|------------------------------------------------------------------------|
|------------------------------------------------------------------------|
|------------------------------------------------------------------------|
|------------------------------------------------------------------------|
|------------------------------------------------------------------------|



   C5           Eb5                    C5            Eb5
|------------|----------------------|-------------|----------------------|
|------------|----------4---4p3-----|-3-----------|---------4--4p3-4p3---|
|-----5------|--------3---------5p3-|-----5-------|-------3-----------5p3|
|---5--------|----3h5---------------|---5---------|---3h5----------------|
|-3------3-5-|-6--------------------|---------3-5-|-6--------------------|
|------------|----------------------|-------------|----------------------|



   C5           Eb5                   Bb      F              C
|------------|---------------------|----|--|-1------------|-0------------|
|-3----------|-----------4--3------|-3--|--|-1------------|-1--------1---|
|-----5------|--------3-------5--3-|----|--|-2---------2--|-0------0-----|
|---5--------|---3--5--------------|----|--|-3-------3----|-2----2-------|
|--------3-5-|-6-------------------|----|--|-3-----3------|-3--3---------|
|------------|---------------------|----|--|-1---1--------|--------------|



   G             Bb   C     Bb    C     Bb    F             G/F
|-------------|----|-----|-----|--0--|-----|-------------|---------------|
|-3-----------|-3--|--1--|--3--|--1--|--3--|--1----------|-3-------------|
|-0---------0-|-3--|--0--|--3--|--0--|--3--|--2--------2-|-0--------0----|
|-0-------0---|-3--|--2--|--3--|--2--|--3--|--3------3---|-0------0------|
|-2-----2-----|-1--|--3--|--1--|--3--|--1--|--3----3-----|-2----2--------|
|-3---3-------|----|-----|-----|-----|-----|--1--1-------|-3--3----------|



   Bb/F          F               C            G              Bb/F
|------------|---------------|-------------|--------------|----|
|-3--------3-|-1---------1---|-1---------1-|-3------------|-1--|
|-3------3---|-2-------2---0-|-0-------0---|-0--------0-0-|-3--|
|-3----3-----|-3-----3-------|-2-----2-----|-0------0-----|-3--|
|-1--1-------|-3---3---------|-3---3-------|-2----2-------|-3--|
|------------|-1-------------|-------------|-3--3---------|-1--|



   			   C    G           F
|-------------------------|-0--|-----------|---------|
|-------------------------|-1--|-----------|---------|
|-------------------------|-0--|-----------|---------|
|-------3-------------3---|-2--|-----------|---------|
|-------------------------|-3--|-----------|---------|
|-1--1----1--1--1--1----1-|----|-----------|---------|



                             C			       G
|-------------------------|-0--|-----------|-0--------|------------------|
|-------------------------|-0--|--1--1-----|-1--------|-3----------------|
|-------------------------|-0--|--0-----0--|-0------0-|-0--------0-------|
|-------3-------------3---|-2--|--2--------|-2----2---|-0------0---------|
|-------------------------|-3--|--3--------|-3--3-----|-2----2-----------|
|-1--1----1--1--1--1----1-|----|-----------|----------|-3--3-------------|



   F            C            G             F             C
|------------|--0--------|-------------|-------------|--0----------------|
|-1--------1-|--1--------|--3----------|--1--------1-|--1--------1-------|
|-2------2---|--0------0-|--0--------0-|--2------2---|--0------0---------|
|-3----3-----|--2----2---|--0------0---|--3----3-----|--2----2-----------|
|-3--3-------|--3--3-----|--2----2-----|--3--3-------|--3--3-------------|
|-1----------|-----------|--3--3-------|--1----------|-------------------|



    G   F     C              G            F            C
|--------|--0-----------|-------------|------------|-0-------------------|
|-3---1--|--1---------1-|--3----------|-1--------1-|-1---------1---------|
|-0---2--|--0-------0---|--0--------0-|-2------2---|-0-------0-----------|
|-0---3--|--2-----2-----|--0------0---|-3----3-----|-2-----2-------------|
|-2---3--|--3---3-------|--2----2-----|-3--3-------|-3---3---------------|
|-3---1--|--------------|--3--3-------|-1----------|---------------------|



   G             F            C           G   F
|------------|------------|-----------|-------||
|-3----------|-1--------1-|-1-------1-|-3---1-||
|-0--------0-|-2------2---|-0-----0---|-0---2-||
|-0------0---|-3----3-----|-2---2-----|-0---3-||
|-2----2-----|-3--3-------|-3-3-------|-2---3-||
|-3--3-------|-1----------|-0---------|-3---1-||


 Solo de Slash I

   C                           Am
|---------------------------|---------------------------|
|---------------------------|---------------------------|
|-5~~----------5h7p5--5b7r5-|-5~~-----------------5h7p5-|
|---------5h7---------------|----------------5h7--------|
|---------------------------|---------------------------|
|---------------------------|---------------------------|



   C			      F
|---------------------------|------------------------------|
|-8-------------------------|----------------------------6-|
|-----7b8--7~-5h7p5\4-5p4---|------------------------5-7---|
|-------------------------5-|--5b-3-5---3--5--3--5/7-------|
|---------------------------|---------5--------------------|
|---------------------------|------------------------------|



   					C
|-----6---6------8-8-8-------8-----  8|-------------------------------|
|-6h8---8---8/10-------11b13---11b13--|-11/13-------13h15p13-------13~|
|-------------------------------------|-------12h14----------13b15----|
|-------------------------------------|-------------------------------|
|-------------------------------------|-------------------------------|
|-------------------------------------|-------------------------------|



  		      F5
|----------------------15------------|-15p13-13p12-13p12-13p12----12--|
|-------13h15p13-15b17----13~~--13-15|-------------------------15-----|
|-12h14------------------------------|--------------------------------|
|------------------------------------|--------------------------------|
|------------------------------------|--------------------------------|
|------------------------------------|--------------------------------|




|------12----------------------------|-----------15-------------------|
|-15b17--17r15-13----15b17~~~~-------|-15--17-18----18b~~r18-17~~~~\0-|
|-----------------14-----------------|--------------------------------|
|------------------------------------|--------------------------------|
|------------------------------------|--------------------------------|
|------------------------------------|--------------------------------|


Solo de Slash II

   C5                              G5
|------18----------18-----------|----18----------18----------------------|
|-18b-----18----18----18--16----|-18b---18----18----18--16---------------|
|----------------------------17-|--------------------------17------------|
|-------------------------------|----------------------------------------|
|-------------------------------|----------------------------------------|
|-------------------------------|----------------------------------------|



   F5                          C5        G5            C5
|---------------------------|----------------------|---------------------|
|-15--15--------------------|----------------------|---------------------|
|--------17----15-----------|----------------------|--------15-----------|
|------------------17-15-13-|-----15b-----------13-|[13]--15b-15b-13-15b-|
|---------------------------|-15----------13h15----|---------------------|
|---------------------------|----------15----------|---------------------|



   G5
|---------------------------------------15---|
|---------------------15h16p15--15-16-18--18-|
|------15-17-17--15-17--------17-------------|
|-15-17--------17----------------------------|
|--------------------------------------------|
|--------------------------------------------|



   F5
|-18--15h18p15--15---------------------|---------------------------------|
|---18--------15---18b--18--16--16-----|---------------------------------|
|-----------------------------17--17p15|-17-17-15--15--------------------|
|--------------------------------------|---------17--17-15-13-15-13----15|
|--------------------------------------|---------------------------15-13-|
|--------------------------------------|---------------------------------|



   C5
|------------|-----------------------------|----------------------------||
|------------|-----------------------------|----------------------13----||
|------------|-----------------------------|-------------------12-------||
|-[15]-------|-[15]------------------------|----------------14----------||
|------------|-----------------------------|-------------15-------------||
|------------|-----------------------------|----------------------------||



   G               F             C
|--------------|-------------|---------10s12-----|
|-12--------12-|-10-------10-|-8-----------------|
|-12------12---|-10-----10---|-9-----------------|
|-12----12-----|-10---10-----|-10----------------|
|-10--10-------|-8---8-------|-------------------|
|--------------|-------------|-------------------|



   G                 F            C                G5
|--10------------|------------|-0------------|-0--||
|----------13s15-|--10--13s15-|-1s13---------|-1--||
|-------12-------|------------|-0------------|-0--||
|-----10---------|------------|-2------------|-2--||
|----------------|------------|-3----0-------|-3--||
|----------------|------------|---------3--0-|----||


 A5               G5	             F5           G5
 I knew the storm was getting clo-        er

 A5                G5               F5             G5
 And all my friends said I was high._________

 A5            G5             F5         G5 A5     G5            F5      E
 But evrything we've ever known's here.     I never wanted it to die



   D5  C5   F    	       C
|---|---|-1---|-[1]--|-0-||
|---|---|-1---|-[1]--|-1-||
|---|---|-2---|-[2]--|-0-||
|---|---|-3---|-[3]--|-2-||
|---|---|-3---|-[3]--|-3-||
|---|---|-1---|-[1]--|---||


                Gm7
   When you're talking to yourself
                 C
   And nobody's home
        Gm7
   You can fool yourself
                            C
   You came in this world alone
        Gm7 C Gm7 C
   Alone

   Bb                        C
   So nobody ever told you, baby
                      G7
   How it was gonna be
  Bb                          C
   So what'll happen to you, baby
                                  G7 Eb Gm/F
   Guess we'll have to wait and see
           [G D C Eb F]2x [G Eb F]2x
   One, two

    G                        G/F
   Old at heart but I'm only 28
            Eb
   And I'm much too young
                          G
   To let love break my heart
     G                              G/F
   Young at heart but it's getting much too late
  Eb                          G
   To find ourselves so far apart

  F
   I don't know how you're supposed
                 G
   To find me lately
  F                                   G
   And what more could you ask from me
  F                                 G
   How could you say that I never needed you
  Eb
   When you took everything
  Gm/F                             G D C Eb F G D C Eb F
   Said you took everything from me          [G Eb F]2x

    G                             G/F
   Young at heart and it gets so hard to wait
          Eb                               G
   When no one I know can seem to help me now
     G                          G/F
   Old at heart but I mustn't hesitate
     Eb                    G
   If I'm find my own way out

            Gm7                         C
   Still talkin' to myself and nobody's home
        Gm7 C
   Alone

  Bb                        C
   So nobody ever told us, baby
                     G7
   How it was gonna be
  Bb                         C
   So what'll happen to us, baby
                                  G7 [C Eb]5x Bb F C G C Bb C Bb C
   Guess we'll have to wait and see     Bb F G/F Bb/F [F C G F F7]2x C

                            G
   When I find all of the reasons
                        F
   Maybe I'll find another way
             C
   Find another way
  G                         F              C
   With all the changin' seasons of my life
                      G             F
   Maybe I'll get it right next time
  C                           G
   And now that you've been broken down
                     F
   Got your head out of the clouds
                    C
   You're back down on the ground
                       G
   And you don't talk so loud
                      F
   And you don't walk so proud
          C           G  F C Am G F F7 C G F F7 C
   Anymore, and what for

                            G
   Well, I jumped into the river too many times
          F
   To make it home
                   C                       G
   I'm out here on my own, and drifting all alone
            F                     C
   If it doesn't show give it time
                            G F
   To read between the lines
      Am              G              F  G
   'Cause I see the storm getting closer
    Am       G                F  G
   And the waves they get so high
    Am         G                     F     G
   Seems everything we've ever known's here
    Am         G                F Dm C Bb Am G C [C Bb]3x F
   Why must it drift away and die        C G F C G C G F C

                               G
   I'll never find anyone to replace you
                          F                  C
   Guess I'll have to make it thru, this time
                G
   Oh, this time

  F           C  Am C G/B
   Without you

  Am             G                  F  G
   I knew the storm was getting closer
  Am            G                 F   G
   And all my friends said I was high
  Am          G                     F     G
   But everything we've ever known's here
  Am         G            F  Dm C Am F C

Comentarios del colaborador: Hagan comentarios sobre como le pareció esto ! Gracia por visitarlo... Saludos!

Calificar esta versión:
Aviso: Este fichero es trabajo propio de su transcriptor y representa su interpretación personal de la canción. El material contenido en esta página es para exclusivo uso privado, por lo que se prohibe su reproducción o retransmisión, así como su uso para fines comerciales.
Más versiones de Estranged, Guns N´ Roses
Estranged
acordes
Estranged (ver 2)
acordes
Estranged
tablatura
Estranged (ver 2)
tablatura
Descubre más canciones de Guns N´ Roses