Don´t Cry, Guns N´ Roses (tablatura) (ver 2)

Autor: sergiorkr | 14352 visualizaciones

LA CANCON COMO LA VOY A SUBIR ESTA UN POCO INCOMPLETA EN DETALLES  Y LE FALTAN UNOS PEDAZOS PERO A LO SEGURO SE VAN A DAR CUENTA D EN QUE PARTES DE LA CANCION SE TOCA EL RIFF DEL INTRO, Y BIENO EL SOLO EN UNA SOLA PARTE SE TOCA. PRUEVENLA QUE LO POCO Q SUBI ESTA BIEN ECHO

INTRO
E|--||-----0-----|-------1-----|---------3-----|-------------------|------0-----|---------1------|---------------|
B|--||-------1---|------3-3----|-----------3---|-------------------|--------1---|-------3--3-----|---------------|
G|--||----2----2-|-----2---2---|-------0-----0-|-------0-----0-----|----2-----2-|------2-----2---|----0----------|
D|--||---2-------|-0--0------0-|-----0---------|-----2-----0-------|---2--------|-0--0---------0-|---0-----------|
A|--||-0---------|-------------|---2-----------|-0-3-----2-----3-2-|-0----------|----------------|--2----------0-|
E|-3||-----------|-------------|-3-------------|-------------------|------------|----------------|-3-----2-3-4---|


SOLO
A5 D5 F5 G5 A5 G5
E|-----------------|-------------------|-------------------------|------------------|
B|-----------------|---------------8---|--------------8-8--------|------------------|
A|--7b9===r7p5--7--|---7b9r7p5—7b9===--|--7b9r7p5—7b9=====9r7-5--|------------------|
D|-----------------|-------------------|-------------------------|--7-5-------------|
A|-----------------|-------------------|-------------------------|------5b6r5-3-----|
E|-----------------|-------------------|-------------------------|------------------|
F5 G5
E|--------------------------------------------------------------|
B|--------------------------------------------------------------|
A|----------------7/9---9/10—10/12-----------------------12h14--|
D|------------------------------------------10h12-12/14---------|
A|----------3/5---5/7---7/8---8/10---10h12----------------------|
E|--------------------------------------------------------------|
A5 G5
E|--------------|-------------------------|------------------------------|
B|-13b17--13----|-------------------------|------------------------------|
A|-----------14-|-12----------------------|------------------------------|
D|--------------|----14-13h14p13p12-13p12-|-10-12p10--------10-----------|
A|--------------|-------------------------|----------12p10------12p10-12-|
E|--------------|-------------------------|------------------------------|
F5 G5 E5 F5
E|--------15-15-15----------|--------15-15---------------|--------------------|----------13--------------|
B|-15b17===========17r15p13-|-15b17========17r15--1312--|-------12--15-13-12-|-13-----------13-15b17-15-|
A|--------------------------|----------------------------|----13--------------|----14--------------------|
D|--------------------------|----------------------------|-14-----------------|-------15-----------------|
A|--------------------------|----------------------------|--------------------|--------------------------|
E|--------------------------|----------------------------|--------------------|--------------------------|
E|-13-------------|-------------|---------5---------------------|
B|---13-15b17-15--|-15b17r15p13-|-8-8b10----8-5-----------9-----|
G|----------------|-------------|----------------7b9r7p5—-7b9---|
D|----------------|-------------|-------------------------------|
B|----------------|-------------|-------------------------------|
E|----------------|-------------|-------------------------------|

Comentarios del colaborador: www.farhatguitar.com esta pagina esta buenisima dejenme comentarios de como les salio la cancion

Calificar esta versión:
Aviso: Este fichero es trabajo propio de su transcriptor y representa su interpretación personal de la canción. El material contenido en esta página es para exclusivo uso privado, por lo que se prohibe su reproducción o retransmisión, así como su uso para fines comerciales.
Más versiones de Don´t Cry, Guns N´ Roses
Don´t Cry
acordes
Don´t Cry (ver 2)
acordes
Don´t Cry
tablatura
Don´t Cry (ver 2)
tablatura
Don´t Cry (ver 3)
tablatura
Don´t Cry (ver 4)
tablatura
Don´t Cry (ver 5)
tablatura
Don´t Cry
video guitarra
Descubre más canciones de Guns N´ Roses