Coma, Guns N´ Roses (bajo)

Autor: <--manu--> | 44272 visualizaciones

intro: latidos de corazón

|-----------------------|
|--11---10---11-11--10--|   X2
|-----0----0-------0----|
|-----------------------|

|--------------------------|
|--------------------------|
|--------------------------|
|--4--0--3--0--4-4-0--3--0-|

|--------------------------|
|--------------------------|
|--------------------------|
|-4--0--3--0--4-7-4--0--3-0|

|--------------------------|
|--------------------------|
|--------------------------|
|-4--0--3--0--4-7-4--3-2-0-|

Calificar esta versión:
Aviso: Este fichero es trabajo propio de su transcriptor y representa su interpretación personal de la canción. El material contenido en esta página es para exclusivo uso privado, por lo que se prohibe su reproducción o retransmisión, así como su uso para fines comerciales.
Más versiones de Coma, Guns N´ Roses
Coma
tablatura
Coma
bajo
Descubre más canciones de Guns N´ Roses