Chinese Democracy, Guns N´ Roses (tablatura)

Autor: ozmos_roses | 35497 visualizaciones

Intro  
   	
E|-------------------------------------------------------------------------------|
B|-------------------------------------------------------------------------------|
G|-------------------------------------------------------------------------------|
D|---7-7--10-10/12-12---13-13-13-------------------------------------------------|
A|---5-5--8---8/10-10---11-11-11-------------------------------------------------|
E|---5-5--8---8/10-10---11-11-11-------------------------------------------------|
     b b  b    b b b     b  c b    ai slide e volta des do começo

legenda b=baixo e c=cima

entre a primeira nota(D com baixo no lá) e a segunda ele faz uma batida
pra baixo abafada ai opcional se vc quiser ow nao,mas entre uam nota e
outra há um certo tempo,na é tudo seguida 
 
Esta base segui por toda a musica apenas no final ele faz aquele solo 			
 It don?t really matter					 
 You?ll find out for yourself							
 No it don?t really matter				
 You?re gonna leave this thing to	 					
 Somebody else 				

 You think we?re missionaries
 Real time visionaries
 Sitting in the Chinese stew???
 To view my dis-infatu-ation
 I know that I?m a classic case
 Watch my disenchanted face
 Blame it on the Falun Gong
 It?s to the end and it can?t hold on now 

 Cause it would take a lot more hate than you
 To stop from fascination
 Even with an iron fist
 more than you got to rule the nation but all I got is
 Precious time

 It don?t really matter
 I guess I keep to myself
 Said and don?t really matter
 I guess you?ll do this thing to
 Somebody else

 Cause it would take a lot more time than you
 have got to masturbation????
 Even with an iron fist
 More than you got to rule the nation but all We've got is
 Precious time
 More than you got to fool the nation but all I got is
 Precious time

 It don?t really matter
 Gonna keep it to yourself
 No it don?t really matter
 So you can hear it now from
 Somebody else

 You think you got it all locked up inside
 And if you beat them enough, they'll die
 And then you'll walk them home to their cell 
 Then now you'll dig from your row back in hell
 And if ???????????
 As if your eyes were your ass you can tell
 In another time

Solo:

E|-18-16-15-16~~---16-16-15--15-----------------18-16-15-15-16-15-------|
B|-------------------------15--15--17-17-15-----------------------14-14-|
G|----------------------------------------------------------------------|
D|----------------------------------------------------------------------|
A|----------------------------------------------------------------------|
E|----------------------------------------------------------------------|

E|-14/15-17b-15-----21------21--21-22b----------------------------------|
B|--------------------18--18--18----------------------------------------|
G|----------------------18----------------------------------------------|
D|----------------------------------------------------------------------|
A|----------------------------------------------------------------------|
E|----------------------------------------------------------------------|
Calificar esta versión:
Aviso: Este fichero es trabajo propio de su transcriptor y representa su interpretación personal de la canción. El material contenido en esta página es para exclusivo uso privado, por lo que se prohibe su reproducción o retransmisión, así como su uso para fines comerciales.
Más versiones de Chinese Democracy, Guns N´ Roses
Chinese Democracy
acordes
Chinese Democracy
tablatura
Descubre más canciones de Guns N´ Roses