Bad Obsession, Guns N´ Roses (tablatura)

Autor: dagner15 | 43118 visualizaciones

e|-0-3-2-0-3-0-----0-3-2-0-3-0----------0-3-2-0-3-0---2-3------------------|
B|-------------------------------------------------------------------------|
G|-------------------------------------------------------------------------|
D|-------------------------------------------------------------------------|
A|-------------------------------------------------------------------------|
E|-------------------------------------------------------------------------|

e|-0-1---------------------------------------------------------------------|
B|-------0--3-1-2-0---0-3-3-2-0--------x-x--------0-3-3-2-0----2-3---------|
G|-------0--3-1-2-0---0-3-3-2-0--------x-x--------0-3-3-2-0----2-3---------|
D|-------------------------------------------------------------------------|
A|-------------------------------------------------------------------------|
E|-------------------------------------------------------------------------|

e|-------------------------------------------------------------------------|
B|-------------------------------------------------------------------------|
G|--0-0-3-3-2-0-----0-2-3-0-2-0----2-0-3-3-2/5-----------------------------|
D|--0-0-3-3-2-0-----0-2-3-0-2-0----2-0-3-3-2/5-----------------------------|
A|-------------------------------------------------------------------------|
E|-------------------------------------------------------------------------|

Comentarios del colaborador: www.todascifras.com.br

Calificar esta versión:
Aviso: Este fichero es trabajo propio de su transcriptor y representa su interpretación personal de la canción. El material contenido en esta página es para exclusivo uso privado, por lo que se prohibe su reproducción o retransmisión, así como su uso para fines comerciales.
Más versiones de Bad Obsession, Guns N´ Roses
Bad Obsession
acordes
Bad Obsession
tablatura
Descubre más canciones de Guns N´ Roses