Attitude, Guns N´ Roses (tablatura)

Autor: martugnr | 32533 visualizaciones

Intro:

||-------------------------------------||
||o-----------------------------------o||
||---7-7-7-7-7-7-7-7-7-7-7-7-7-7-7-7---||  Slowly Release
||---7-7-7-7-7-7-7-7-7-7-7-7-7-7-7-7---||  Palm Mute on Repeat
||o--5-5-5-5-5-5-5-5-5-5-5-5-5-5-5-5--o||
||-------------------------------------||


Verse:

|--------------------------------|
|--------------------------------|
|--7----7-7--7-7-----------------|
|--7----7-7--7-7----5---5-5--5-5-|
|--5----5-5--5-5----5---5-5--5-5-|
|-----------------0-3---3-3--3-3-|


Chorus:

|-------------------------------------|
|-------------------------------------|
|-------------------------------------|  X2
|--4-4-4-4-4--44-4-4-4-4-4-5-5-7--7-5-|
|--4-4-4-4-4--44-4-4-4-4-4-5-5-7--7-5-|
|--2-2-2-2-2--22-2-2-2-2-2-3-3-5--5-3-|


|--------------------------------|
|--------------------------------|
|--7----7-7--7-7-----------------|
|--7----7-7--7-7----7---7-7--7-7-|  X2 (Also Play During Guitar Solo)
|--5----5-5--5-5----7---7-7--7-7-|
|-----------------0-5---5-5--5-5-|



Guitar Solo:

|-----------10-10----------10-10----------10-10----------10-10---|
|--------10-------------10-------------10-------------10---------|
|--12^14----------12^14----------12^14----------12^14------------|
|----------------------------------------------------------------|
|----------------------------------------------------------------|
|----------------------------------------------------------------|


|-----------10-10----------10-10----------10-10-----------------------------|
|--------10-------------10-------------10----------------------12----10-----|
|--12^14----------12^14----------12^14----------12^14^12p10----12----10-----|
|-----------------------------------------------------------12----12----12--|
|---------------------------------------------------------------------------|
|---------------------------------------------------------------------------|


|---------10-10---------------------------------------------|
|------10--------13p10-----10---------------------12--------|
|12^14------------------12----12---12^14^12p10----12--------|
|----------------------------------------------12----12-----|
|-----------------------------------------------------------|
|-----------------------------------------------------------|

Comentarios del colaborador: Grosaa cancion q canta Duff Mckagan

Calificar esta versión:
Aviso: Este fichero es trabajo propio de su transcriptor y representa su interpretación personal de la canción. El material contenido en esta página es para exclusivo uso privado, por lo que se prohibe su reproducción o retransmisión, así como su uso para fines comerciales.
Más versiones de Attitude, Guns N´ Roses
Attitude
acordes
Attitude
tablatura
Descubre más canciones de Guns N´ Roses