Te Veo En El Cielo, Guardian (tablatura)

Autor: deam | 22503 visualizaciones

Intr.: (la pueden tocar con las notas o hacer el puteo)


 I--------------Si-----------------I--------------C#m-----I-G#m-I-------F#------I
e:---------------------------------------------------------------------------------------
B:-------------------------------7h9---7-9----------------------------------------------
G:---------4-6s8-6-4?6h8-------------------6h8-6-4-6h8-6-4---3h4-------------------
D:--4h6-------------------------------------------------------------4-2-1----------
A:-----------------------------------------------------------------------------3x------
E:--------------------------------------------------------------------------------------

 I--------------Si-------I--C#m----I-----------G#m--------I--------------F#------------I

e:------------------------------------7h9s11-11-9-7h9-------7b9b7--------------------
B:-------------------------7h9-7h9---------------------7h9--------7b9b7--------------
G:--------4-6h8-6-4-6h8--------------------------------------------------6b8b6x-b3---
D:--4h6--------------------------------------------------------------------------------
A:-------------------------------------------------------------------------------------
E:-------------------------------------------------------------------------------------

 I--Mi?--I?-F#----I-G#m-I-C#m-I                  I-G#m-I-F#m-I
e:-------------------------------------------------------------------------
B:----------------------------4-6------------4-6s8----8-6-------------------
G:--------------------7----------4-6-----4-6-------------------6b8b6x---s2-
D:--3-3-3--?5-5-5---7----------------4-6-----------------------------------
A:-------------------------------------------------------------------------
E:-------------------------------------------------------------------------


Mi
Es muy difícil esperar
      F#
Y un adiós así dar a tiempo
G#m                C#m
Siempre el sol se ocultara
 G#m             F#
Concluyendo lo nuestro

Mi          F#     G#m
Hubiera deseado estar
               F#
Y un día más contigo  pasar
 Si                C#m
Aunque ya no estés aquí
  G#m            F#
Te veo en el cielo
F#
Te veo en el cielo



Coro:

Si                         Mi
Aun más que perderte me duele más
    G#m
Los años que no
 F#
Estuve a tu lado
Si                  Mi
Quiero correr hacia ti
   G#m
Te quiero enseñar
F#
Lo que he logrado
 Si
Pues lo que mas duele
   Mi           G#m
Es ya no poder vivir
 F#
Junto a ti


Mi
Veo en la foto
          F#
Un pequeño que
Solo esta
G#m            C#m
Queriéndote hallar
                    G#m
Es increíble como crecio
           F#
Aun así solo el continuo

Mi         F#     G#m
Hubiera deseado estar
               F#
En tus brazos otra vez
 Si                 C#m
Aunque ya no estés aquí
  G#m
Allá te abrazo
F#
Te abrazo en el cielo


Coro



Mi
Pues muchos años
         F#
Yo deje pasar
                  G#m
Creí en control están
C#m
Ahora veo que no es así
  G#m
Se a terminado te debo dejar ir

F#   Mi F# G#m

(Esta parte es lenta 1 rasgueo por nota)

Mi   F#        G#m
Solo un minuto nada más
     G#m     F#    Si
Hubiera querido decir
         C#m       G#m
Te amo mas te lo diré
Allá en el cielo
F#
Allá en el cielo


Coro
Calificar esta versión:
Aviso: Este fichero es trabajo propio de su transcriptor y representa su interpretación personal de la canción. El material contenido en esta página es para exclusivo uso privado, por lo que se prohibe su reproducción o retransmisión, así como su uso para fines comerciales.
Más versiones de Te Veo En El Cielo, Guardian
Te Veo En El Cielo
acordes
Te Veo En El Cielo
tablatura
Te Veo En El Cielo
bateria
Descubre más canciones de Guardian