Echame A Mi La Culpa, Guaraná (tablatura)

Autor: Anónimo | 14700 visualizaciones

Muchachos del ATAME ésta rola está 1/2 tono abajo de lo normal osea en Mi bemol por lo 
tanto tendrán que templar su guitarra a tal tono OK?


Intro


Riff 1
E-------3---3-----3-----3--------
B-----5---3---3-----3-5---3------
G---------------5----------------   4 veces
D--------------------------------
A--------------------------------
E--------------------------------


Riff 2
E-----8-8---8-----8-----8--------
B---------8---8-6---6-8---8------
G--------------------------------   2 veces
D--------------------------------
A--------------------------------
E--------------------------------

Fin Intro


Riff 2

C - C7sus    
Sabes mejor que nadie
Que me fallaste,
Que lo que prometiste
            G-Csu
Se te olvidó

E--------------------------------
B-----------3-5-3----------------
G---5-4-5---------5-4------------   
D--------------------------------
A--------------------------------
E--------------------------------

Dm7
Sabes a ciencia cierta
            G-Csu
Que me engañaste

E--------------------------------
B--------1-3-1-0-3-0-1-3-1-0-----
G--0-2-4-------------------------   
D--------------------------------

 G7
Aunque nadie te amaba
        C-C7sus
Igual que yo.

E-----8-10-12-13-13-13--12-15----
B--------------------------------
G-------------------------------- 


Riff2

C-C7sus
Lleno estoy de razones
             C7
Pa' despreciarte
Y sin embargo quiero
        F
Que seas feliz.

E----5/6-6-6-6-5-3---------------
B--------------------------------
G-------------------------------- 

Dm7               G-Csu
Y allá en el otro mundo
         C-C7sus
En vez de infierno
           Am-Am7
Encuentres gloria,
          Dm7          G-Csu
Y que una nube de tu memoria
           C-C7
Me borre a mí.

E--------------------------------
B------3-5-5-3---5-5-3---5-------
G----5---------5-------5--------- 


Dm7               G-CSu
Y allá en el otro mundo
         C-C7sus
En vez de infierno
           Am-Am7
Encuentres gloria,
          Dm7          G-CSu
Y que una nube de tu memoria
           C-C7sus  C-C7sus
Me borre a mí.


G-Csu               G-Csu
Dile al que te pregunte
                C-C7sus
Que no te quise,
G-Csu            G-Csu
Dile que te engañaba,
             C-C7sus
Que fuí lo peor.

E--------------------------------
B---6-5--------------------------
G-------7-5-7-7-7~9-------------- 



Riff 2
C-C7sus             C-C7sus
Échame a mí la culpa
        C-C7sus
De lo que pase,
                C7
Cúbrete tú la espalda
        F
Con mi dolor.



Dm7               G-CSu
Y allá en el otro mundo
         C-C7sus
En vez de infierno
           Am-Am7
Encuentres gloria,
          Dm7          G-CSu
Y que una nube de tu memoria
           C-C7
Me borre a mí.

E---7-8-10-12~13-12-10-8---------
B--------------------------------
G-------------------------------- 


Dm7               G-CSu
Y allá en el otro mundo
         C-C7sus
En vez de infierno
           Am-Am7
Encuentres gloria,
          Dm7          G-CSu
Y que una nube de tu memoria
           C-C7sus  C-C7sus
Me borre a mí.

E----12----------------------------
B-------13-------------------------
G-------------------------------- 



Solo



Dm7               G-CSu
Y allá en el otro mundo
         C-C7sus
En vez de infierno
           Am-Am7
Encuentres gloria,
          Dm7          G-CSu
Y que una nube de tu memoria
           C-C7 
Me borre a mí.

E--------------------------------
B------3-5-5-3---5-5-3---5-------
G----5---------5-------5--------- 


Dm7               G-CSu
Y allá en el otro mundo
         C-C7sus
En vez de infierno
           Am-Am7
Encuentres gloria,
          Dm7          G-CSu
Y que una nube de tu memoria
           C-C7sus  C-C7sus
Me borre a mí.



Fade out



 ---------------------
|DEFINICIÓN DE ACORDES|
 ---------------------

 X____O/    X_____/        X_____/    XXO___/    X_____/
 3OOOOOO     3OOOOOO        3OOOOOO     1||||OO        3OOOOOO      
  ||||||      ||||||         |||O||      |||O||         |||O||      
  ||OOO|      ||OO||         |OO|||      ||||||         |O||||      
  ||||||      ||||O|         ||||||      ||||||         ||||||
  C =DO   C7sus= DO7sus4   G =SOL     Dm7 =REm7        G7 =SOL7


 X____O/    ______/    XO___O/    OO_O__/     X_____/
 3OOOOOO     1O|||OO     1||||O|     1||||O|        3OOOOOO 
  ||||||      |||O||        ||OO||      ||O|||          ||||||
  ||O|O|      |OO|||        ||||||      |||||O         |O|O||
  ||||||      ||||||        ||||||      ||||||         ||||||
 C7 =DO7      F  =FA        Am =LAm    Am7 =LAm7       Csu=DOsus2





Quiero dedicar éste trabajo a esa personita que hace 
especial mi vida... Violeta
Calificar esta versión:
Aviso: Este fichero es trabajo propio de su transcriptor y representa su interpretación personal de la canción. El material contenido en esta página es para exclusivo uso privado, por lo que se prohibe su reproducción o retransmisión, así como su uso para fines comerciales.
Más versiones de Echame A Mi La Culpa, Guaraná
Echame A Mi La Culpa
acordes
Echame A Mi La Culpa
tablatura
Descubre más canciones de Guaraná