Los Sueños, Green Valley (tablatura)

Autor: [anoni]Pollyy[anoni] | 19455 visualizaciones

Bueno amigos aca les dejo la tablatura de los sueños green valley 
"Espero que les convensa"



1ra Guitarra (intro)

1|----------------------------------------------------------------|/
2|-8/10------------8-------------8/10------------8----------------|/
3|------9----9-------9----9-7-5-------9----9-------9----9-7-5-4-5-|/
4|--------10---5-5-----10---------------10---5-5-----10-----------|/
5|----------------------------------------------------------------|/
6|----------------------------------------------------------------|/

2da Guitarra (intro)

1|--------------------0------|/
2|-------0--------------0----|/
3|---5-----5------5----------|/
4|-7---7-----7--7---7------7-|/
5|---------------------------|/
6|---------------------------|/

1|--------------------0------|/
2|-------0--------------0----|/
3|---5-----5------5----------|/
4|-5---5-----5--5---5------5-|/
5|---------------------------|/
6|---------------------------|/

1|--------------------0------|/
2|-------0--------------0----|/
3|---5-----5------5----------|/
4|-7---7-----7--7---7------7-|/
5|---------------------------|/
6|---------------------------|/

1|--------------------0------|/
2|-------0--------------0----|/
3|---5-----5------5----------|/
4|---------------------------|/
5|-5---5-----5--5---5------5-|/
6|---------------------------|/


2da guitarra estrofa

1|-5-8--3-|
2|-5-8--3-|
3|-5-9--4-|
4|-7-10-5-|
5|-7-10-5-|
6|-5-8--3-|



solo

1|-7------------------------------------------|/
2|-10-10/8-10--------------------------10-----|/
3|-9----------9-5-7--9-10-9-7-9-10-9-7----9-7-|/
4|--------------------------------------------|/
5|--------------------------------------------|/
6|--------------------------------------------|/

1|--10/12-12-10-8/7-8------7---------7-|/
2|-----------------------8---8-----8---|/
3|---9/12-12-9--9/7-9--9-------9-9-----|/
4|-7-----------------------------------|/
5|-------------------------------------|/
6|-------------------------------------|/

1|----------------------7-7-------------------------------|/
2|-------------8---8-10-----8---8-----------8-8-----------|/
3|---------7-9---9------------9---9-7-5/4-5-----9/7-5/7-5-|/
4|-----7-9------------------------------------------------|/
5|-7-9----------------------------------------------------|/
6|--------------------------------------------------------|/

1|---------------------------------------------------|/
2|---------------------------------------------------|/
3|---------5-8/7--5---5------------------------------|/
4|-----5/7----------7---7-5--------------------------|/
5|-5/7----------------------7--3/5-5-3-5-3-5-5/7-----|/
6|-----------------------------------------------5-5-|/

Comentarios del colaborador: espero que les guste chauuu

Calificar esta versión:
Aviso: Este fichero es trabajo propio de su transcriptor y representa su interpretación personal de la canción. El material contenido en esta página es para exclusivo uso privado, por lo que se prohibe su reproducción o retransmisión, así como su uso para fines comerciales.
Más versiones de Los Sueños, Green Valley
Los Sueños
acordes
Los Sueños
tablatura
Descubre más canciones de Green Valley