86, Green Day (tablatura)

Autor: <--manu--> | 31990 visualizaciones

Verse (x2, palm mute)
   E5   B5   A5   E5  A5  E5
e|---------------------------------------------------------------|
B|---------------------------------------------------------------|
G|--------------------2-2----------------------------------------|
D|-2----9----7----2---2-2-2--------------------------------------|
A|-2----9----7----2---0-0-2--------------------------------------|
E|-0----7----5----0-------0--------------------------------------|

Pre-Chorus (x2)
   B5   A5
e|---------------------------------------------------------------|
B|---------------------------------------------------------------|
G|---------------------------------------------------------------|
D|-9----7--------------------------------------------------------|
A|-9----7--------------------------------------------------------|
E|-7----5--------------------------------------------------------|

Chorus (x4)
   E5   G#5  A5
e|---------------------------------------------------------------|
B|---------------------------------------------------------------|
G|-9-------------------------------------------------------------|
D|-9----6----7---------------------------------------------------|
A|-7----6----7---------------------------------------------------|
E|------4----5---------------------------------------------------|

Bridge
   E5   G#5  A5 (x4)  E5
e|---------------------------------------------------------------|
B|---------------------------------------------------------------|
G|------------------------(bass riff)----------------------------|
D|-2----6----7--------2---------------2--------------------------|
A|-2----6----7--------2---------------2--------------------------|
E|-0----4----5--------0---------------0--------------------------|


Order

Chorus chords x4
Verse 1
Pre-Chorus
Chorus
Verse 2
Pre-Chorus
Chorus
Bridge
Chorus
End on E5


Lyrics

What brings you around?
Did you lose something
The last time you were here?		(Verse 1)
You'll never find it now
It's buried deep
With your identity

So stand aside
And let the next one pass		(Pre-Chorus)
Don't let the door
Kick you in the ass

There's no return from 86   (x4)
Don't even try				(Chorus)

Exit out the back
And never show your head
Around again				(Verse 2)
Purchase your ticket
And quickly take
The last train out of town

(Pre-Chorus)
(Chorus)
(Bridge)
(Chorus)

Calificar esta versión:
Aviso: Este fichero es trabajo propio de su transcriptor y representa su interpretación personal de la canción. El material contenido en esta página es para exclusivo uso privado, por lo que se prohibe su reproducción o retransmisión, así como su uso para fines comerciales.
Más versiones de 86, Green Day
86
acordes
86
tablatura
Descubre más canciones de Green Day