Feel Good Inc, Gorillaz (acordes) (ver 2)

Autor: Anónimo | 19039 visualizaciones

asosmdsosmgsosm
D#m                A#m
Windmill, Windmill for the land.
G#m           Bmb
Learn forever hand in hand
D#m            A#m
Take it all in on your stride
G#m              Bmb
It is sticking, falling down
D#m           A#m
Love forever love is free
G#m                 Bmb
Let's turn forever you and me
D#m                A#m
windmill, windmill for the land
  G#m
Is everybody in?


play this riff three times before next verse

e|---------------------------------------------------------------------------|
B|---------------------------------------------------------------------------|
G|--6-6-6-6-6-6--------------------------------------------------------------|
D|--6-6-6-8-6-8--------------------------------------------------------------|
A|--4-4-4-4-4-4--------------------------------------------------------------|
D|---------------------------------------------------------------------------| X3

Laughing gas these hazmats, fast cats,
Lining them up-a like ass cracks,
Ladies, homies, at the track
its my chocolate attack.
Shit, I'm stepping in the heart of this here
Care bear bumping in the heart of this here
watch me as I gravitate
hahahahahahaa.
Yo, we gonna go ghost town,
this motown,
with yo sound
you're in the place
you gonna bite the dust
Cant fight with us
With yo sound
you kill the INC.
so dont stop, get it, get it
until you're cheddar header.
Yo, watch the way I navigate

Windmill, Windmill for the land.
Learn forever hand in hand
Take it all in on your stride
It is sticking, falling down
Love forever love is free
Let's turn forever you and me
Windmill, windmill for the land
Is everybody in?

Dont stop, get it, get it
we are your captains in it
steady,
watch me navigate,
ahahahahahhaa.
Dont stop, get it, get it
we are your captains in it
steady, watch me navigate


   D#m    A#m  G#m   Bmb
e|--6------6----4----1---------------------------------------------------------|
B|--7------6----4----2---------------------------------------------------------|
G|--8------6----4----3---------------------------------------------------------|
D|--8------8----6----3---------------------------------------------------------|
A|--6------8----6----1---------------------------------------------------------|
D|---------8----6--------------------------------------------------------------|

thats it

| /  slide up
| \  slide down
| h  hammer-on
| p  pull-off
| ~  vibrato
| +  harmonic
| x  Mute note
Aviso: Este fichero es trabajo propio de su transcriptor y representa su interpretación personal de la canción. El material contenido en esta página es para exclusivo uso privado, por lo que se prohibe su reproducción o retransmisión, así como su uso para fines comerciales.
Más versiones de Feel Good Inc, Gorillaz
Feel Good Inc
acordes
Feel Good Inc (ver 2)
acordes
Feel Good Inc
tablatura
Feel Good Inc (ver 2)
tablatura
Feel Good Inc (ver 3)
tablatura
Feel Good Inc
bajo
Feel Good Inc (ver 2)
bajo
Descubre más canciones de Gorillaz

Comentarios en Facebook: