5/4, Gorillaz (tablatura)

Autor: Anónimo | 25539 visualizaciones

Cualquier duda sobre musica o algun error mi msn es:
matiasrocks@hotmail.com

El nombre de esta cancion de la banda Virtual Gorillaz, va justamente con el tempo (5/4), se marcan 4 negras y dentro 
de esas van las 5 notas (Dox2 - Fax3, Dox2 - Re#x3), de toda la cancion

Los primeros 2 tiempos de la cancion va solo la primera
guitarra de esta forma:

e|----------------------------------------| 
B|----------------------------------------| 
G|-------------------------8-8-8----------| 
D|--10-10-10-10-10---10-10-8-8-8----------| x2
A|--10-10-10-10-10---10-10-6-6-6----------| 
E|--8--8--8--8--8----8--8-----------------| 

Cuando termina las 2 primeras veces, la primera guitarra sigue igual pero inmediantamente le sigue la segunda guitarra de esta
otra forma:

e|----------------------------------------| 
B|----------------------------------------| 
G|--------10-10-10---------8-8-8----------| 
D|--10-10-10-10-10---10-10-8-8-8----------| x14
A|--10-10-8--8--8----10-10-6-6-6----------| 
E|--8--8-------------8--8-----------------|

Despues de las 14 veces hecho esto junto con la primera guitarra
sigue en el coro asi:

e|----------------------------------------| 
B|----------------------------------------| 
G|-12-12-12-12-12-12-12-12----------------| 
D|-12-12-12-12-12-12-12-12----------------| x4
A|-10-10-10-10-10-10-10-10----------------| 
E|----------------------------------------|

Despues, en el resto de la canciòn, la primera guitarra desparece reemplazada por un instrument , el cual no se que sera xD, pero sigue asi:

e|----------------------------------------| 
B|----------------------------------------| 
G|--------10-10-10---------8-8-8----------| 
D|--10-10-10-10-10---10-10-8-8-8----------| x14
A|--10-10-8--8--8----10-10-6-6-6----------| 
E|--8--8-------------8--8-----------------|

y en el coro:

e|----------------------------------------| 
B|----------------------------------------| 
G|-12-12-12-12-12-12-12-12----------------| 
D|-12-12-12-12-12-12-12-12----------------| x4
A|-10-10-10-10-10-10-10-10----------------| 
E|----------------------------------------|

Luego queda en silencio con la voz durante 16 tiempos (Negras), luego 8 tiempos con bateria y de ahi aparece la segunda guitarra
otra vez:

e|----------------------------------------| 
B|----------------------------------------| 
G|-12-12-12-12-12-12-12-12----------------| 
D|-12-12-12-12-12-12-12-12----------------| x4
A|-10-10-10-10-10-10-10-10----------------| 
E|----------------------------------------|

y termina.

Viva gorillaz!
Nuevo album: Marzo 2010.
Aviso: Este fichero es trabajo propio de su transcriptor y representa su interpretación personal de la canción. El material contenido en esta página es para exclusivo uso privado, por lo que se prohibe su reproducción o retransmisión, así como su uso para fines comerciales.
Más versiones de 5/4, Gorillaz
5/4
acordes
5/4
tablatura
Descubre más canciones de Gorillaz

Comentarios en Facebook: