Give Your Love, Gondwana (tablatura)

Autor: Anónimo | 34977 visualizaciones

Intro

e)------------------------------------------------------------------|
B)------------------------------------------------------------------|
G)------------------------------------------------------------------|
D)------6-6-6-6--6-6-6-6--6-6-6-6-4-4-4-4-4-6-4---------------------|
A)---------------------------------7---7--------7-4-4-4-------------|
E)------------------------------------------------------------------|

Se repite 3 veces y luego hace:

e)------------------------------------------------------------------|
B)------------------------------------------------------------------|
G)--2-2-2-2--2-2--6-6-6-6-6--6-6---4-4-4-4-4------------------------|
D)-------------------------------------------6-4--------------------|
A)-----------------------------------------------7-4----------------|
E)------------------------------------------------------------------|


Acá tienen espero que lo disfruten.. cualquier error avísenme
 a martín_huevo22@hormail.com o a huevo__mc@hotmail.com

atTe: martin "h uevo"

 Gualeguaychú .. NO A LAS PAPELERAS!!!!!
Calificar esta versión:
Aviso: Este fichero es trabajo propio de su transcriptor y representa su interpretación personal de la canción. El material contenido en esta página es para exclusivo uso privado, por lo que se prohibe su reproducción o retransmisión, así como su uso para fines comerciales.
Más versiones de Give Your Love, Gondwana
Give Your Love
acordes
Give Your Love
tablatura
Descubre más canciones de Gondwana