Felicidad, Gondwana (bajo)

Autor: Anónimo | 41774 visualizaciones

hola soy kike ya que no habia un tab para bajo
tome la decision y mede subir uno
es la primera ves que hago esto espero que me entiendan
cualquier error notifiquen bueno ahi va............

INTRO:
G-----------------------|
D-----------------------|
A--3-------------3------|
E----3---1---------3--5-|
aqui entra la bateria la tronpeta y sigue esto:

G---------------------------------|
D-----5-2-5-----------------------|
A---3-------5---------------------|
E---------------0-1-0-1-0-2-2-0-2-|

Es que tu cariño conmigo compartiste:

G-----------------------------------------------------------|
D-----------------------------------------------------------|
A------7-3-7---7-3-7---7-3-------7-3------------------------|
E----5-------5-------5-----7-5-5-----7--0-1-0-1-0-2-2-0-2---|
CORO:
Felicidad, eso es lo que tu me das
G---------------------------------|
D-----5-2-5-----------------------|
A---3-------5---------------------|
E---------------0-1-0-1-0-2-2-0-2-|

Por siempre junto a ti un día me dijiste:

G----------------------------------------------------------|
D----------------------------------------------------------|
A------7-3-7---7-3-7---7-3-------7-3-----------------------|
E----5-------5-------5-----7-5-5-----7--0-1-0-1-0-2-2-0-2--|

SOLO DE SAXO:

G-----------------------------------
D-----5-2-5------------------------|
A---3-------5----------------------|
E---------------0-1-0-1-0-2-2-0-2--|
ESTA PARTE ES EN EL SOLO DEL SAXO EN EL CAMBIO CUANDO CAMBIADE
ACORDE(MI)
G----------------------------------------------------------|
D----------------------------------------------------------|
A------7-3-7---7-3-7---7-3-------7-3-----------------------|
E----5-------5-------5-----7-5-5-----7--0-1-0-1-0-2-2-0-2--|

CORO:(2 veces)
final:

G------------------------|
D------------------------|
A--3-------------3-------|
E----3---1---------------|


bueno eso es todo..!
Calificar esta versión:
Aviso: Este fichero es trabajo propio de su transcriptor y representa su interpretación personal de la canción. El material contenido en esta página es para exclusivo uso privado, por lo que se prohibe su reproducción o retransmisión, así como su uso para fines comerciales.
Más versiones de Felicidad, Gondwana
Felicidad
acordes
Felicidad (ver 2)
acordes
Felicidad (ver 3)
acordes
Felicidad
tablatura
Felicidad
bajo
Descubre más canciones de Gondwana