Dulce Amor, Gondwana (bajo)

Autor: Anónimo | 37844 visualizaciones

Pues este es un rolon de Gondwana de las mejores a mi parecer
espero y les agrade mi tab..
Va dedicada para Myrna Lizzete..Mi dulce amor

Weno la rola esta en afinacion standard

y todo es muy sencillo..solo escuchen la rola para agarrar los tiempos



Este es el Bassline de Toda la cancion...(va en toda la cancion)
G  :----------------------|--------------------------|-------------------------|
D  :--------------4-4---4-|-------------------------2|--2-3---3-5--------------|
A  :------------5-----5---|---7-7-7---7-----0-3---3--|-------------------------|
E  :3-3-0-3----x----------|-5-------8---5------------|-------------------------|



y esto se toca en el solo de metales
G  :----------------------|--------------------------|
D  :--------------4-4---4-|--------------------------|
A  :------------5-----5---|-----3-----2--------------|
E  :3-3-0-3----x----------|-5-------------5----------|


G  :-------------------------|-----------------------| 
D  :-----------------4-4---4-|-------2-2-------------|
A  :---------------5-----5---|---3-------5--3--2-----|
E  :3-3---0-3-----x----------|5-------------------5--|


*/*/*/*/*/*/*/*/*/*/*/*/*/*/*/*/*/*/*/*/*/*/*/*/*/*/*/*/*/*/*/*/*/*/*/*/*/*/*/*/
shido pues ahi esta espero les sea util cualkiero duda o lo ke sea al mail
no olviden oir la cancion para los tiempos

Saludos !
Calificar esta versión:
Aviso: Este fichero es trabajo propio de su transcriptor y representa su interpretación personal de la canción. El material contenido en esta página es para exclusivo uso privado, por lo que se prohibe su reproducción o retransmisión, así como su uso para fines comerciales.
Más versiones de Dulce Amor, Gondwana
Dulce Amor
acordes
Dulce Amor
tablatura
Dulce Amor
bajo
Descubre más canciones de Gondwana