Antonia, Gondwana (bajo)

Autor: Anónimo | 37565 visualizaciones

Gondwana - Antonia

Tablatura Bajo.

Afinación Estándar, Bajo 4 Cuerdas.


  Intro											       x2
G||--------0--||------------------------------------------------------------------------------------------------||
D||--0--2-----||------5-5-5------5-3-5------9-9-9------9-7-9------7-7-7------7-5-7----------------5--5---5------||
A||-----------||--3--3-------3--3-------7--7-------7--7-------5--5-------5--5-------8--8-8-8-5-8-------8---8-5--||
E||-----------||------------------------------------------------------------------------------------------------||



										          x2
G||------------------------------------------------------------------------------------------------||
D||·-----5-5-5------5-3-5------9-9-9------9-7-9------7-7-7------7-5-7----------------5--5---5-----·||
A||·-3--3-------3--3-------7--7-------7--7-------5--5-------5--5-------8--8-8-8-5-8-------8---8-5-·||
E||------------------------------------------------------------------------------------------------||
    Tú amor, mi vida...



G||--------------------------------------------------------------------------------------------------||
D||------5-5-5----5-3-5-------9-9-9------9-7-9------7-7-7------7-5-7-------10-8-----------12-10------||
A||--3--3--------3--------7--7-------7--7-------5--5-------5--5-------8--8------8--10--10-------10/--||
E||--------------------------------------------------------------------------------------------------||
    Este mundo está esperandote...



G||------------------------------------------------------------------------------------------------||
D||------5-5-5------5-3-5------9-9-9------9-7-9------7-7-7------7-5-7----------------5--5---5------||
A||--3--3-------3--3-------7--7-------7--7-------5--5-------5--5-------8--8-8-8-5-8-------8---8-5--||
E||------------------------------------------------------------------------------------------------||
    Mi cariño eres la razón...



G||--------------------------------------------------------------------------------------------------||
D||------5-5-5----5-3-5-------9-9-9------9-7-9------7-7-7------7-5-7-------10-8-----------12-10------||
A||--3--3--------3--------7--7-------7--7-------5--5-------5--5-------8--8------8--10--10-------10/--||
E||--------------------------------------------------------------------------------------------------||
    No habrá fuerza...


										         x3
G||------------------------------------------------------------------------------------------------||
D||·-----5-5-5------5-3-5------9-9-9------9-7-9------7-7-7------7-5-7----------------5--5---5-----·||
A||·-3--3-------3--3-------7--7-------7--7-------5--5-------5--5-------8--8-8-8-5-8-------8---8-5-·||
E||------------------------------------------------------------------------------------------------||
    Siempre en ti amor, mi vida...



G||------------------------------------9-9--9-------------------------------------------------------||
D||------5-5-5------5-3-5--------9-9--9------9--------7-7-7------7-5-7----------------5--5---5------||
A||--3--3-------3--3--------7---7---------------7/5--5-------5--5-------8--8-8-8-5-8-------8---8-5--||
E||-------------------------------------------------------------------------------------------------||



											 x3
G||------------------------------------------------------------------------------------------------||
D||·-----5-5-5------5-3-5------9-9-9------9-7-9------7-7-7------7-5-7----------------5--5---5-----·||
A||·-3--3-------3--3-------7--7-------7--7-------5--5-------5--5-------8--8-8-8-5-8-------8---8-5-·||
E||------------------------------------------------------------------------------------------------||
    Hay dulce esperanza...


					      x2
G||--------------------------------------------||
D||.-----7-7-7--------------------------------·||
A||.-5--5-------5--5-8-5-7-0---0--0-3--0-7--0-·||
E||--------------------------------------------||
    Te miro y veo todo...



G||------------------------------------------0--|------------------------------||
D||-----7-7-7-----------------------------------|----------------5--5---5------||
A||-5--5-------5--5-8-5-7-0---0--0-3--0-7--0----|--8--8-8-8-5-8-------8---8-5--||
E||---------------------------------------------|------------------------------||
    Tu dios es el de todos...                       Dulce esperanza...


											  x3
G||------------------------------------------------------------------------------------------------||
D||·-----5-5-5------5-3-5------9-9-9------9-7-9------7-7-7------7-5-7----------------5--5---5-----·|| 
A||·-3--3-------3--3-------7--7-------7--7-------5--5-------5--5-------8--8-8-8-5-8-------8---8-5-·||  
E||------------------------------------------------------------------------------------------------||   
                                                                                                         
                                                                                                          
                                                                                                          /  x2
                                                                                                         /
G||------------------------------------9-9--9-------------------------------------------------------||  /
D||------5-5-5------5-3-5--------9-9--9------9--------7-7-7------7-5-7----------------5--5---5------|| /
A||--3--3-------3--3--------7---7---------------7/5--5-------5--5-------8--8-8-8-5-8-------8---8-5--||/
E||-------------------------------------------------------------------------------------------------||


Autor: Rodrigo C. T.
Sugerencias a desideratum@walla.com
Calificar esta versión:
Aviso: Este fichero es trabajo propio de su transcriptor y representa su interpretación personal de la canción. El material contenido en esta página es para exclusivo uso privado, por lo que se prohibe su reproducción o retransmisión, así como su uso para fines comerciales.
Más versiones de Antonia, Gondwana
Antonia
acordes
Antonia
bajo
Antonia (ver 2)
bajo
Antonia
teclado
Descubre más canciones de Gondwana