Aire De Jah, Gondwana (bajo)

Autor: Anónimo | 38413 visualizaciones

Esta polución me va a matar…

G||---------------|------------|---------|------------|---------|
D||---------------|------------|---------|------------|---------|
A||--5--3---------|-----5--5---|---------|-----6-----6|-----5---|
E||--------6--5--3|--3--------3|--3--1--3|--6-----6---|--3-----3|

G||---------------|------------|---------|------------|---------|
D||---------------|------------|---------|------------|---------|
A||--5--3---------|------------|---------|-----6-----6|-----5---|
E||--------6--5--3|--3--1--1--3|--3--1--3|--6-----6---|--3-----3|

G||---------------|------------|---------|------------|---------|
D||---------------|------------|---------|------------|---------|
A||--5--3---------|-----5--5---|---------|-----6-----6|-----5---|
E||--------6--5--3|--3--------3|--3--1--3|--6-----6---|--3-----3|

G||---------------|------------|---------|------------|
D||---------------|------------|---------|------------|
A||--5--3---------|------------|---------|-----6-----6|
E||--------5--5--3|--3--1--1--3|--3--1--3|--6-----6---|

G||--------------|
D||--------------|
A||-----5----3--3|
E||--3----3------|

                   Que difícil se vuelve cada vez…

G||---------------------|----------|----------| -|-
D||---------------------|----------|----------|  |
A||------55------------1|--6-------|--5-------|  | x5
E||--33------66--5--3---|-----66--3|-----55--1| -|-

Esta polución me va a matar…

G||---------------|------------|---------|------------|--------|
D||---------------|------------|---------|------------|--------|
A||--55--3--------|-----5--5---|---------|-----6-----6|----5---|
E||--------6--5--3|--3--------3|--3--1--3|--6-----6---|--3----3|

G||---------------|------------|---------|------------|--------|
D||---------------|------------|---------|------------|--------|
A||--5--3---------|------------|---------|-----6-----6|----5---|
E||--------6--5--3|--3--1--1--3|--3--1--3|--6-----6---|--3----3|

G||---------------|------------|---------|------------|--------|
D||---------------|------------|---------|------------|--------|
A||--5--3---------|-----5--5---|---------|-----6-----6|----5---|
E||--------6--5--3|--3--------3|--3--1--3|--6-----6---|--3----3|

G||---------------|------------|---------|------------|--------|
D||---------------|------------|---------|------------|--------|
A||--5--3---------|------------|---------|-----6-----6|----5---|
E||--------6--5--3|--3--1--1--3|--3--1--3|--6-----6---|--3----3|

G||---------------|------------|---------|------------|--------|
D||---------------|------------|---------|------------|--------|
A||--5--3---------|-----5--5---|---------|-----6-----6|----5---|
E||--------6--5--3|--3--------3|--3--1--3|--6-----6---|--3----3|


G||---------------|------------|---------|------------|--------|
D||---------------|------------|---------|------------|--------|
A||--5--3---------|------------|---------|-----6-----6|----5---|
E||--------6--5--3|--3--1--1--3|--3--1--3|--6-----6---|--3----3|

G||---------------|
D||---------------|
A||--5--3---------|
E||--------6--5--3|


                       Razones para enloquecer…

G||---------------------|----------|----------| -|-
D||---------------------|----------|----------|  |
A||------55------------1|-----66---|--5-------|  | x4
E||--33------66--5--3---|--6------3|-----55--1| -|-

G||------------|------------| -|-
D||------------|--0--------0|  |
A||-----3-----6|--------0---|  | x3
E||--6-----6---|-----1------| -|-

G||---------------------------------|
D||---------------------------------|
A||--3-----33-----33-----33-----6--5|
E||-----3------3------3------3------|

Y mi corazón lo sentirá…

G||---------|------------|---------|------------|---------| -|-
D||---------|------------|---------|------------|---------|  |
A||--5------|-----5--5---|---------|-----6-----6|-----5---|  |
E||-----6--3|--3------3--|--3--1--3|--6¬-----6---|--3-----3  |
                                                             |
G||---------------|------------|---------|------------|      |
D||---------------|------------|---------|------------|      |
A||--5--3---------|------------|---------|-----6-----6|      | x2
E||--------6--5--3|--3--1--1--3|--3--1--3|--6-----6---|      |
                                                             |
G||--------|                                                 |
D||--------|                                                 |
A||----5---|                                                 |
E||--3----3|                                                -|-

G||---------------|
D||---------------|
A||--5--3---------|
E||--------6--5--3|

Cuál es el afán de fabricar…

G||----------------------------------|-------------------------| -|-
D||----------------------------------|-------------------------|  |
A||---------3h5--3h5---------3h5--3h5|66—6----------55—5-------|  | x4
E||--33--3-------------33--3---------|-------66—6----------6--5| -|-

G||---------------|---------|------------|--------|
D||---------------|---------|------------|--------|
A||--------5--5---|---------|-----6-----6|----5---|
E||--3--3--------3|--3--1--3|--6-----6---|--3----3|

G||---------------|------------|---------|------------|--------|
D||---------------|------------|---------|------------|--------|
A||--5--3---------|------------|---------|-----6-----6|----5---|
E||--------6--5--3|--3--1--1--3|--3--1--3|--6-----6---|--3----3|

G||---------------|
D||---------------|
A||--5--3---------| Y aquí termina…
E||--------6--5--3|

Pongo la transcripcion de acuerdo al orden en que que se presentando
la canción ya que casi toda la rola es lo mismo pero tiene ligeras
variaciones,cualquier duda me lo hacen saber...
Calificar esta versión:
Aviso: Este fichero es trabajo propio de su transcriptor y representa su interpretación personal de la canción. El material contenido en esta página es para exclusivo uso privado, por lo que se prohibe su reproducción o retransmisión, así como su uso para fines comerciales.
Más versiones de Aire De Jah, Gondwana
Aire De Jah
acordes
Aire De Jah
bajo
Aire De Jah
teclado
Descubre más canciones de Gondwana